  0
SECTION
  2
HEADER
  9
$ACADVER
  1
AC1014
  9
$HANDSEED
  5
FFFF
  9
$MEASUREMENT
 70
     1
  0
ENDSEC
  0
SECTION
  2
TABLES
  0
TABLE
  2
VPORT
  5
8
330
0
100
AcDbSymbolTable
 70
     4
  0
VPORT
  5
2E
330
8
100
AcDbSymbolTableRecord
100
AcDbViewportTableRecord
  2
*ACTIVE
 70
     0
 10
0.0
 20
0.0
 11
1.0
 21
1.0
 12
210.0
 22
148.5
 13
0.0
 23
0.0
 14
10.0
 24
10.0
 15
10.0
 25
10.0
 16
0.0
 26
0.0
 36
1.0
 17
0.0
 27
0.0
 37
0.0
 40
341.0
 41
1.24
 42
50.0
 43
0.0
 44
0.0
 50
0.0
 51
0.0
 71
     0
 72
   100
 73
     1
 74
     3
 75
     0
 76
     0
 77
     0
 78
     0
  0
ENDTAB
  0
TABLE
  2
LTYPE
  5
5
330
0
100
AcDbSymbolTable
 70
     1
  0
LTYPE
  5
14
330
5
100
AcDbSymbolTableRecord
100
AcDbLinetypeTableRecord
  2
BYBLOCK
 70
     0
  3

 72
    65
 73
     0
 40
0.0
  0
LTYPE
  5
15
330
5
100
AcDbSymbolTableRecord
100
AcDbLinetypeTableRecord
  2
BYLAYER
 70
     0
  3

 72
    65
 73
     0
 40
0.0
  0
LTYPE
  5
16
330
5
100
AcDbSymbolTableRecord
100
AcDbLinetypeTableRecord
  2
CONTINUOUS
 70
     0
  3
Solid line
 72
    65
 73
     0
 40
0.0
  0
ENDTAB
  0
TABLE
  2
LAYER
  5
2
100
AcDbSymbolTable
 70
5
  0
LAYER
  5
50
100
AcDbSymbolTableRecord
100
AcDbLayerTableRecord
  2
0
 70
0
  6
CONTINUOUS
  0
LAYER
  5
51
100
AcDbSymbolTableRecord
100
AcDbLayerTableRecord
  2
capot
 70
0
  6
CONTINUOUS
  0
LAYER
  5
52
100
AcDbSymbolTableRecord
100
AcDbLayerTableRecord
  2
doublure
 70
0
  6
CONTINUOUS
  0
LAYER
  5
53
100
AcDbSymbolTableRecord
100
AcDbLayerTableRecord
  2
texte
 70
0
  6
CONTINUOUS
  0
LAYER
  5
54
100
AcDbSymbolTableRecord
100
AcDbLayerTableRecord
  2
texte_applati
 70
0
  6
CONTINUOUS
  0
ENDTAB
  0
TABLE
  2
STYLE
  5
3
330
0
100
AcDbSymbolTable
 70
     1
  0
STYLE
  5
11
330
3
100
AcDbSymbolTableRecord
100
AcDbTextStyleTableRecord
  2
STANDARD
 70
     0
 40
0.0
 41
1.0
 50
0.0
 71
     0
 42
2.5
  3
txt
  4

  0
ENDTAB
  0
TABLE
  2
VIEW
  5
6
330
0
100
AcDbSymbolTable
 70
     0
  0
ENDTAB
  0
TABLE
  2
UCS
  5
7
330
0
100
AcDbSymbolTable
 70
     0
  0
ENDTAB
  0
TABLE
  2
APPID
  5
9
330
0
100
AcDbSymbolTable
 70
     2
  0
APPID
  5
12
330
9
100
AcDbSymbolTableRecord
100
AcDbRegAppTableRecord
  2
ACAD
 70
     0
  0
ENDTAB
  0
TABLE
  2
DIMSTYLE
  5
A
330
0
100
AcDbSymbolTable
 70
     1
  0
DIMSTYLE
105
27
330
A
100
AcDbSymbolTableRecord
100
AcDbDimStyleTableRecord
  2
ISO-25
 70
     0
  3

  4

  5

  6

  7

 40
1.0
 41
2.5
 42
0.625
 43
3.75
 44
1.25
 45
0.0
 46
0.0
 47
0.0
 48
0.0
140
2.5
141
2.5
142
0.0
143
0.03937007874016
144
1.0
145
0.0
146
1.0
147
0.625
 71
     0
 72
     0
 73
     0
 74
     0
 75
     0
 76
     0
 77
     1
 78
     8
170
     0
171
     3
172
     1
173
     0
174
     0
175
     0
176
     0
177
     0
178
     0
270
     2
271
     2
272
     2
273
     2
274
     3
340
11
275
     0
280
     0
281
     0
282
     0
283
     0
284
     8
285
     0
286
     0
287
     3
288
     0
  0
ENDTAB
  0
TABLE
  2
BLOCK_RECORD
  5
1
330
0
100
AcDbSymbolTable
 70
     1
  0
BLOCK_RECORD
  5
1F
330
1
100
AcDbSymbolTableRecord
100
AcDbBlockTableRecord
  2
*MODEL_SPACE
  0
BLOCK_RECORD
  5
1B
330
1
100
AcDbSymbolTableRecord
100
AcDbBlockTableRecord
  2
*PAPER_SPACE
  0
ENDTAB
  0
ENDSEC
  0
SECTION
  2
BLOCKS
  0
BLOCK
  5
20
330
1F
100
AcDbEntity
  8
0
100
AcDbBlockBegin
  2
*MODEL_SPACE
 70
     0
 10
0.0
 20
0.0
 30
0.0
  3
*MODEL_SPACE
  1

  0
ENDBLK
  5
21
330
1F
100
AcDbEntity
  8
0
100
AcDbBlockEnd
  0
BLOCK
  5
1C
330
1B
100
AcDbEntity
 67
     1
  8
0
100
AcDbBlockBegin
  2
*PAPER_SPACE
  1

  0
ENDBLK
  5
1D
330
1B
100
AcDbEntity
 67
     1
  8
0
100
AcDbBlockEnd
  0
ENDSEC
  0
SECTION
  2
ENTITIES
  0
LWPOLYLINE
  5
100
100
AcDbEntity
  8
doublure
 62
7
100
AcDbPolyline
 90
2
 70
0
 10
245.132291
 20
16.632313
 30
0.0
 10
232.132291
 20
16.632313
 30
0.0
  0
LWPOLYLINE
  5
101
100
AcDbEntity
  8
doublure
 62
7
100
AcDbPolyline
 90
3
 70
0
 10
245.132291
 20
16.632313
 30
0.0
 10
245.132291
 20
27.632312
 30
0.0
 10
232.132291
 20
27.632312
 30
0.0
  0
SPLINE
  5
102
100
AcDbEntity
  8
doublure
 62
7
100
AcDbSpline
 70
8
 71
3
 72
8
 73
4
 74
0
 40
0
 40
0
 40
0
 40
0
 40
1
 40
1
 40
1
 40
1
 10
198.132293
 20
22.132313
 30
0.0
 10
198.132293
 20
24.811805
 30
0.0
 10
196.702800
 20
27.287758
 30
0.0
 10
194.382292
 20
28.627504
 30
0.0
  0
SPLINE
  5
103
100
AcDbEntity
  8
doublure
 62
7
100
AcDbSpline
 70
8
 71
3
 72
8
 73
4
 74
0
 40
0
 40
0
 40
0
 40
0
 40
1
 40
1
 40
1
 40
1
 10
194.382292
 20
28.627504
 30
0.0
 10
192.061784
 20
29.967250
 30
0.0
 10
189.202800
 20
29.967250
 30
0.0
 10
186.882291
 20
28.627504
 30
0.0
  0
SPLINE
  5
104
100
AcDbEntity
  8
doublure
 62
7
100
AcDbSpline
 70
8
 71
3
 72
8
 73
4
 74
0
 40
0
 40
0
 40
0
 40
0
 40
1
 40
1
 40
1
 40
1
 10
186.882291
 20
28.627504
 30
0.0
 10
184.561783
 20
27.287758
 30
0.0
 10
183.132291
 20
24.811805
 30
0.0
 10
183.132291
 20
22.132313
 30
0.0
  0
SPLINE
  5
105
100
AcDbEntity
  8
doublure
 62
7
100
AcDbSpline
 70
8
 71
3
 72
8
 73
4
 74
0
 40
0
 40
0
 40
0
 40
0
 40
1
 40
1
 40
1
 40
1
 10
183.132291
 20
22.132313
 30
0.0
 10
183.132291
 20
19.452820
 30
0.0
 10
184.561783
 20
16.976867
 30
0.0
 10
186.882291
 20
15.637121
 30
0.0
  0
SPLINE
  5
106
100
AcDbEntity
  8
doublure
 62
7
100
AcDbSpline
 70
8
 71
3
 72
8
 73
4
 74
0
 40
0
 40
0
 40
0
 40
0
 40
1
 40
1
 40
1
 40
1
 10
186.882291
 20
15.637121
 30
0.0
 10
189.202800
 20
14.297375
 30
0.0
 10
192.061784
 20
14.297375
 30
0.0
 10
194.382292
 20
15.637121
 30
0.0
  0
SPLINE
  5
107
100
AcDbEntity
  8
doublure
 62
7
100
AcDbSpline
 70
8
 71
3
 72
8
 73
4
 74
0
 40
0
 40
0
 40
0
 40
0
 40
1
 40
1
 40
1
 40
1
 10
194.382292
 20
15.637121
 30
0.0
 10
196.702800
 20
16.976867
 30
0.0
 10
198.132293
 20
19.452820
 30
0.0
 10
198.132293
 20
22.132313
 30
0.0
  0
LWPOLYLINE
  5
108
100
AcDbEntity
  8
doublure
 62
7
100
AcDbPolyline
 90
2
 70
0
 10
232.132291
 20
16.632313
 30
0.0
 10
232.132291
 20
27.632312
 30
0.0
  0
SPLINE
  5
109
100
AcDbEntity
  8
doublure
 62
7
100
AcDbSpline
 70
8
 71
3
 72
8
 73
4
 74
0
 40
0
 40
0
 40
0
 40
0
 40
1
 40
1
 40
1
 40
1
 10
166.132290
 20
22.132313
 30
0.0
 10
166.133297
 20
24.812475
 30
0.0
 10
164.704026
 20
27.289479
 30
0.0
 10
162.383104
 20
28.629851
 30
0.0
  0
SPLINE
  5
10a
100
AcDbEntity
  8
doublure
 62
7
100
AcDbSpline
 70
8
 71
3
 72
8
 73
4
 74
0
 40
0
 40
0
 40
0
 40
0
 40
1
 40
1
 40
1
 40
1
 10
162.383104
 20
28.629851
 30
0.0
 10
160.062183
 20
29.970223
 30
0.0
 10
157.202399
 20
29.970223
 30
0.0
 10
154.881478
 20
28.629851
 30
0.0
  0
SPLINE
  5
10b
100
AcDbEntity
  8
doublure
 62
7
100
AcDbSpline
 70
8
 71
3
 72
8
 73
4
 74
0
 40
0
 40
0
 40
0
 40
0
 40
1
 40
1
 40
1
 40
1
 10
154.881478
 20
28.629851
 30
0.0
 10
152.560556
 20
27.289479
 30
0.0
 10
151.131284
 20
24.812475
 30
0.0
 10
151.132291
 20
22.132313
 30
0.0
  0
SPLINE
  5
10c
100
AcDbEntity
  8
doublure
 62
7
100
AcDbSpline
 70
8
 71
3
 72
8
 73
4
 74
0
 40
0
 40
0
 40
0
 40
0
 40
1
 40
1
 40
1
 40
1
 10
151.132291
 20
22.132313
 30
0.0
 10
151.131284
 20
19.452150
 30
0.0
 10
152.560556
 20
16.975146
 30
0.0
 10
154.881478
 20
15.634774
 30
0.0
  0
SPLINE
  5
10d
100
AcDbEntity
  8
doublure
 62
7
100
AcDbSpline
 70
8
 71
3
 72
8
 73
4
 74
0
 40
0
 40
0
 40
0
 40
0
 40
1
 40
1
 40
1
 40
1
 10
154.881478
 20
15.634774
 30
0.0
 10
157.202399
 20
14.294402
 30
0.0
 10
160.062183
 20
14.294402
 30
0.0
 10
162.383104
 20
15.634774
 30
0.0
  0
SPLINE
  5
10e
100
AcDbEntity
  8
doublure
 62
7
100
AcDbSpline
 70
8
 71
3
 72
8
 73
4
 74
0
 40
0
 40
0
 40
0
 40
0
 40
1
 40
1
 40
1
 40
1
 10
162.383104
 20
15.634774
 30
0.0
 10
164.704026
 20
16.975146
 30
0.0
 10
166.133297
 20
19.452150
 30
0.0
 10
166.132290
 20
22.132313
 30
0.0
  0
LWPOLYLINE
  5
10f
100
AcDbEntity
  8
doublure
 62
7
100
AcDbPolyline
 90
1
 70
1
 10
198.132293
 20
22.132313
 30
0.0
  0
SPLINE
  5
110
100
AcDbEntity
  8
doublure
 62
7
100
AcDbSpline
 70
8
 71
3
 72
8
 73
4
 74
0
 40
0
 40
0
 40
0
 40
0
 40
1
 40
1
 40
1
 40
1
 10
298.132288
 20
22.132313
 30
0.0
 10
298.134992
 20
23.741806
 30
0.0
 10
297.277890
 20
25.230198
 30
0.0
 10
295.884477
 20
26.035726
 30
0.0
  0
SPLINE
  5
111
100
AcDbEntity
  8
doublure
 62
7
100
AcDbSpline
 70
8
 71
3
 72
8
 73
4
 74
0
 40
0
 40
0
 40
0
 40
0
 40
1
 40
1
 40
1
 40
1
 10
295.884477
 20
26.035726
 30
0.0
 10
294.491063
 20
26.841254
 30
0.0
 10
292.773526
 20
26.841254
 30
0.0
 10
291.380113
 20
26.035726
 30
0.0
  0
SPLINE
  5
112
100
AcDbEntity
  8
doublure
 62
7
100
AcDbSpline
 70
8
 71
3
 72
8
 73
4
 74
0
 40
0
 40
0
 40
0
 40
0
 40
1
 40
1
 40
1
 40
1
 10
291.380113
 20
26.035726
 30
0.0
 10
289.986699
 20
25.230198
 30
0.0
 10
289.129597
 20
23.741806
 30
0.0
 10
289.132301
 20
22.132313
 30
0.0
  0
SPLINE
  5
113
100
AcDbEntity
  8
doublure
 62
7
100
AcDbSpline
 70
8
 71
3
 72
8
 73
4
 74
0
 40
0
 40
0
 40
0
 40
0
 40
1
 40
1
 40
1
 40
1
 10
289.132301
 20
22.132313
 30
0.0
 10
289.129597
 20
20.522819
 30
0.0
 10
289.986699
 20
19.034427
 30
0.0
 10
291.380113
 20
18.228899
 30
0.0
  0
SPLINE
  5
114
100
AcDbEntity
  8
doublure
 62
7
100
AcDbSpline
 70
8
 71
3
 72
8
 73
4
 74
0
 40
0
 40
0
 40
0
 40
0
 40
1
 40
1
 40
1
 40
1
 10
291.380113
 20
18.228899
 30
0.0
 10
292.773526
 20
17.423371
 30
0.0
 10
294.491063
 20
17.423371
 30
0.0
 10
295.884477
 20
18.228899
 30
0.0
  0
SPLINE
  5
115
100
AcDbEntity
  8
doublure
 62
7
100
AcDbSpline
 70
8
 71
3
 72
8
 73
4
 74
0
 40
0
 40
0
 40
0
 40
0
 40
1
 40
1
 40
1
 40
1
 10
295.884477
 20
18.228899
 30
0.0
 10
297.277890
 20
19.034427
 30
0.0
 10
298.134992
 20
20.522819
 30
0.0
 10
298.132288
 20
22.132313
 30
0.0
  0
LWPOLYLINE
  5
116
100
AcDbEntity
  8
doublure
 62
7
100
AcDbPolyline
 90
1
 70
1
 10
166.132290
 20
22.132313
 30
0.0
  0
SPLINE
  5
117
100
AcDbEntity
  8
doublure
 62
7
100
AcDbSpline
 70
8
 71
3
 72
8
 73
4
 74
0
 40
0
 40
0
 40
0
 40
0
 40
1
 40
1
 40
1
 40
1
 10
273.132285
 20
22.132313
 30
0.0
 10
273.133940
 20
23.741109
 30
0.0
 10
272.276608
 20
25.228408
 30
0.0
 10
270.883624
 20
26.033284
 30
0.0
  0
SPLINE
  5
118
100
AcDbEntity
  8
doublure
 62
7
100
AcDbSpline
 70
8
 71
3
 72
8
 73
4
 74
0
 40
0
 40
0
 40
0
 40
0
 40
1
 40
1
 40
1
 40
1
 10
270.883624
 20
26.033284
 30
0.0
 10
269.490640
 20
26.838161
 30
0.0
 10
267.773935
 20
26.838161
 30
0.0
 10
266.380952
 20
26.033284
 30
0.0
  0
SPLINE
  5
119
100
AcDbEntity
  8
doublure
 62
7
100
AcDbSpline
 70
8
 71
3
 72
8
 73
4
 74
0
 40
0
 40
0
 40
0
 40
0
 40
1
 40
1
 40
1
 40
1
 10
266.380952
 20
26.033284
 30
0.0
 10
264.987968
 20
25.228408
 30
0.0
 10
264.130635
 20
23.741109
 30
0.0
 10
264.132290
 20
22.132313
 30
0.0
  0
SPLINE
  5
11a
100
AcDbEntity
  8
doublure
 62
7
100
AcDbSpline
 70
8
 71
3
 72
8
 73
4
 74
0
 40
0
 40
0
 40
0
 40
0
 40
1
 40
1
 40
1
 40
1
 10
264.132290
 20
22.132313
 30
0.0
 10
264.130635
 20
20.523516
 30
0.0
 10
264.987968
 20
19.036217
 30
0.0
 10
266.380952
 20
18.231341
 30
0.0
  0
SPLINE
  5
11b
100
AcDbEntity
  8
doublure
 62
7
100
AcDbSpline
 70
8
 71
3
 72
8
 73
4
 74
0
 40
0
 40
0
 40
0
 40
0
 40
1
 40
1
 40
1
 40
1
 10
266.380952
 20
18.231341
 30
0.0
 10
267.773935
 20
17.426464
 30
0.0
 10
269.490640
 20
17.426464
 30
0.0
 10
270.883624
 20
18.231341
 30
0.0
  0
SPLINE
  5
11c
100
AcDbEntity
  8
doublure
 62
7
100
AcDbSpline
 70
8
 71
3
 72
8
 73
4
 74
0
 40
0
 40
0
 40
0
 40
0
 40
1
 40
1
 40
1
 40
1
 10
270.883624
 20
18.231341
 30
0.0
 10
272.276608
 20
19.036217
 30
0.0
 10
273.133940
 20
20.523516
 30
0.0
 10
273.132285
 20
22.132313
 30
0.0
  0
LWPOLYLINE
  5
11d
100
AcDbEntity
  8
doublure
 62
7
100
AcDbPolyline
 90
1
 70
1
 10
298.132288
 20
22.132313
 30
0.0
  0
SPLINE
  5
11e
100
AcDbEntity
  8
doublure
 62
7
100
AcDbSpline
 70
8
 71
3
 72
8
 73
4
 74
0
 40
0
 40
0
 40
0
 40
0
 40
1
 40
1
 40
1
 40
1
 10
117.132291
 20
22.132313
 30
0.0
 10
117.133394
 20
23.740742
 30
0.0
 10
116.275940
 20
25.227465
 30
0.0
 10
114.883182
 20
26.031999
 30
0.0
  0
SPLINE
  5
11f
100
AcDbEntity
  8
doublure
 62
7
100
AcDbSpline
 70
8
 71
3
 72
8
 73
4
 74
0
 40
0
 40
0
 40
0
 40
0
 40
1
 40
1
 40
1
 40
1
 10
114.883182
 20
26.031999
 30
0.0
 10
113.490425
 20
26.836532
 30
0.0
 10
111.774158
 20
26.836532
 30
0.0
 10
110.381401
 20
26.031999
 30
0.0
  0
SPLINE
  5
120
100
AcDbEntity
  8
doublure
 62
7
100
AcDbSpline
 70
8
 71
3
 72
8
 73
4
 74
0
 40
0
 40
0
 40
0
 40
0
 40
1
 40
1
 40
1
 40
1
 10
110.381401
 20
26.031999
 30
0.0
 10
108.988643
 20
25.227465
 30
0.0
 10
108.131190
 20
23.740742
 30
0.0
 10
108.132293
 20
22.132313
 30
0.0
  0
SPLINE
  5
121
100
AcDbEntity
  8
doublure
 62
7
100
AcDbSpline
 70
8
 71
3
 72
8
 73
4
 74
0
 40
0
 40
0
 40
0
 40
0
 40
1
 40
1
 40
1
 40
1
 10
108.132293
 20
22.132313
 30
0.0
 10
108.131190
 20
20.523883
 30
0.0
 10
108.988643
 20
19.037160
 30
0.0
 10
110.381401
 20
18.232626
 30
0.0
  0
SPLINE
  5
122
100
AcDbEntity
  8
doublure
 62
7
100
AcDbSpline
 70
8
 71
3
 72
8
 73
4
 74
0
 40
0
 40
0
 40
0
 40
0
 40
1
 40
1
 40
1
 40
1
 10
110.381401
 20
18.232626
 30
0.0
 10
111.774158
 20
17.428093
 30
0.0
 10
113.490425
 20
17.428093
 30
0.0
 10
114.883182
 20
18.232626
 30
0.0
  0
SPLINE
  5
123
100
AcDbEntity
  8
doublure
 62
7
100
AcDbSpline
 70
8
 71
3
 72
8
 73
4
 74
0
 40
0
 40
0
 40
0
 40
0
 40
1
 40
1
 40
1
 40
1
 10
114.883182
 20
18.232626
 30
0.0
 10
116.275940
 20
19.037160
 30
0.0
 10
117.133394
 20
20.523883
 30
0.0
 10
117.132291
 20
22.132313
 30
0.0
  0
LWPOLYLINE
  5
124
100
AcDbEntity
  8
doublure
 62
7
100
AcDbPolyline
 90
1
 70
1
 10
273.132285
 20
22.132313
 30
0.0
  0
SPLINE
  5
125
100
AcDbEntity
  8
doublure
 62
7
100
AcDbSpline
 70
8
 71
3
 72
8
 73
4
 74
0
 40
0
 40
0
 40
0
 40
0
 40
1
 40
1
 40
1
 40
1
 10
92.132290
 20
22.132313
 30
0.0
 10
92.133393
 20
23.740742
 30
0.0
 10
91.275940
 20
25.227465
 30
0.0
 10
89.883182
 20
26.031999
 30
0.0
  0
SPLINE
  5
126
100
AcDbEntity
  8
doublure
 62
7
100
AcDbSpline
 70
8
 71
3
 72
8
 73
4
 74
0
 40
0
 40
0
 40
0
 40
0
 40
1
 40
1
 40
1
 40
1
 10
89.883182
 20
26.031999
 30
0.0
 10
88.490425
 20
26.836532
 30
0.0
 10
86.774158
 20
26.836532
 30
0.0
 10
85.381400
 20
26.031999
 30
0.0
  0
SPLINE
  5
127
100
AcDbEntity
  8
doublure
 62
7
100
AcDbSpline
 70
8
 71
3
 72
8
 73
4
 74
0
 40
0
 40
0
 40
0
 40
0
 40
1
 40
1
 40
1
 40
1
 10
85.381400
 20
26.031999
 30
0.0
 10
83.988643
 20
25.227465
 30
0.0
 10
83.131189
 20
23.740742
 30
0.0
 10
83.132292
 20
22.132313
 30
0.0
  0
SPLINE
  5
128
100
AcDbEntity
  8
doublure
 62
7
100
AcDbSpline
 70
8
 71
3
 72
8
 73
4
 74
0
 40
0
 40
0
 40
0
 40
0
 40
1
 40
1
 40
1
 40
1
 10
83.132292
 20
22.132313
 30
0.0
 10
83.131189
 20
20.523883
 30
0.0
 10
83.988643
 20
19.037160
 30
0.0
 10
85.381400
 20
18.232626
 30
0.0
  0
SPLINE
  5
129
100
AcDbEntity
  8
doublure
 62
7
100
AcDbSpline
 70
8
 71
3
 72
8
 73
4
 74
0
 40
0
 40
0
 40
0
 40
0
 40
1
 40
1
 40
1
 40
1
 10
85.381400
 20
18.232626
 30
0.0
 10
86.774158
 20
17.428093
 30
0.0
 10
88.490425
 20
17.428093
 30
0.0
 10
89.883182
 20
18.232626
 30
0.0
  0
SPLINE
  5
12a
100
AcDbEntity
  8
doublure
 62
7
100
AcDbSpline
 70
8
 71
3
 72
8
 73
4
 74
0
 40
0
 40
0
 40
0
 40
0
 40
1
 40
1
 40
1
 40
1
 10
89.883182
 20
18.232626
 30
0.0
 10
91.275940
 20
19.037160
 30
0.0
 10
92.133393
 20
20.523883
 30
0.0
 10
92.132290
 20
22.132313
 30
0.0
  0
LWPOLYLINE
  5
12b
100
AcDbEntity
  8
doublure
 62
7
100
AcDbPolyline
 90
1
 70
1
 10
117.132291
 20
22.132313
 30
0.0
  0
LWPOLYLINE
  5
12c
100
AcDbEntity
  8
doublure
 62
7
100
AcDbPolyline
 90
1
 70
1
 10
92.132290
 20
22.132313
 30
0.0
  0
SPLINE
  5
12d
100
AcDbEntity
  8
doublure
 62
7
100
AcDbSpline
 70
8
 71
3
 72
8
 73
4
 74
0
 40
0
 40
0
 40
0
 40
0
 40
1
 40
1
 40
1
 40
1
 10
479.131233
 20
32.842805
 30
0.0
 10
479.525436
 20
32.842805
 30
0.0
 10
479.842804
 20
32.525442
 30
0.0
 10
479.842804
 20
32.131234
 30
0.0
  0
LWPOLYLINE
  5
12e
100
AcDbEntity
  8
doublure
 62
7
100
AcDbPolyline
 90
2
 70
0
 10
0.868770
 20
32.842805
 30
0.0
 10
479.131233
 20
32.842805
 30
0.0
  0
SPLINE
  5
12f
100
AcDbEntity
  8
doublure
 62
7
100
AcDbSpline
 70
8
 71
3
 72
8
 73
4
 74
0
 40
0
 40
0
 40
0
 40
0
 40
1
 40
1
 40
1
 40
1
 10
479.842804
 20
0.868782
 30
0.0
 10
479.842804
 20
0.474553
 30
0.0
 10
479.525436
 20
0.157185
 30
0.0
 10
479.131233
 20
0.157185
 30
0.0
  0
LWPOLYLINE
  5
130
100
AcDbEntity
  8
doublure
 62
7
100
AcDbPolyline
 90
2
 70
0
 10
479.842804
 20
32.131234
 30
0.0
 10
479.842804
 20
0.868782
 30
0.0
  0
SPLINE
  5
131
100
AcDbEntity
  8
doublure
 62
7
100
AcDbSpline
 70
8
 71
3
 72
8
 73
4
 74
0
 40
0
 40
0
 40
0
 40
0
 40
1
 40
1
 40
1
 40
1
 10
0.868770
 20
0.157185
 30
0.0
 10
0.474558
 20
0.157185
 30
0.0
 10
0.157197
 20
0.474553
 30
0.0
 10
0.157197
 20
0.868782
 30
0.0
  0
LWPOLYLINE
  5
132
100
AcDbEntity
  8
doublure
 62
7
100
AcDbPolyline
 90
2
 70
0
 10
479.131233
 20
0.157185
 30
0.0
 10
0.868770
 20
0.157185
 30
0.0
  0
SPLINE
  5
133
100
AcDbEntity
  8
doublure
 62
7
100
AcDbSpline
 70
8
 71
3
 72
8
 73
4
 74
0
 40
0
 40
0
 40
0
 40
0
 40
1
 40
1
 40
1
 40
1
 10
0.157197
 20
32.131234
 30
0.0
 10
0.157197
 20
32.525442
 30
0.0
 10
0.474558
 20
32.842805
 30
0.0
 10
0.868770
 20
32.842805
 30
0.0
  0
LWPOLYLINE
  5
134
100
AcDbEntity
  8
doublure
 62
7
100
AcDbPolyline
 90
2
 70
0
 10
0.157197
 20
0.868782
 30
0.0
 10
0.157197
 20
32.131234
 30
0.0
  0
LWPOLYLINE
  5
135
100
AcDbEntity
  8
doublure
 62
7
100
AcDbPolyline
 90
1
 70
1
 10
0.868770
 20
32.842805
 30
0.0
  0
LWPOLYLINE
  5
136
100
AcDbEntity
  8
doublure
 62
7
100
AcDbPolyline
 90
4
 70
1
 10
334.410685
 20
27.853901
 30
0.0
 10
357.853906
 20
27.853901
 30
0.0
 10
357.853906
 20
16.410698
 30
0.0
 10
334.410685
 20
16.410698
 30
0.0
  0
LWPOLYLINE
  5
137
100
AcDbEntity
  8
doublure
 62
7
100
AcDbPolyline
 90
4
 70
1
 10
376.573468
 20
25.441112
 30
0.0
 10
395.691095
 20
25.441112
 30
0.0
 10
395.691095
 20
18.823486
 30
0.0
 10
376.573468
 20
18.823486
 30
0.0
  0
ENDSEC
  0
SECTION
  2
OBJECTS
  0
DICTIONARY
  5
C
330
0
100
AcDbDictionary
  3
ACAD_GROUP
350
D
  3
ACAD_MLINESTYLE
350
17
  0
DICTIONARY
  5
D
330
C
100
AcDbDictionary
  0
DICTIONARY
  5
1A
330
C
100
AcDbDictionary
  0
DICTIONARY
  5
17
330
C
100
AcDbDictionary
  3
STANDARD
350
18
  0
DICTIONARY
  5
19
330
C
100
AcDbDictionary
  0
ENDSEC
  0
EOF
