  0
SECTION
  2
HEADER
  9
$ACADVER
  1
AC1014
  9
$HANDSEED
  5
FFFF
  9
$MEASUREMENT
 70
     1
  0
ENDSEC
  0
SECTION
  2
TABLES
  0
TABLE
  2
VPORT
  5
8
330
0
100
AcDbSymbolTable
 70
     4
  0
VPORT
  5
2E
330
8
100
AcDbSymbolTableRecord
100
AcDbViewportTableRecord
  2
*ACTIVE
 70
     0
 10
0.0
 20
0.0
 11
1.0
 21
1.0
 12
210.0
 22
148.5
 13
0.0
 23
0.0
 14
10.0
 24
10.0
 15
10.0
 25
10.0
 16
0.0
 26
0.0
 36
1.0
 17
0.0
 27
0.0
 37
0.0
 40
341.0
 41
1.24
 42
50.0
 43
0.0
 44
0.0
 50
0.0
 51
0.0
 71
     0
 72
   100
 73
     1
 74
     3
 75
     0
 76
     0
 77
     0
 78
     0
  0
ENDTAB
  0
TABLE
  2
LTYPE
  5
5
330
0
100
AcDbSymbolTable
 70
     1
  0
LTYPE
  5
14
330
5
100
AcDbSymbolTableRecord
100
AcDbLinetypeTableRecord
  2
BYBLOCK
 70
     0
  3

 72
    65
 73
     0
 40
0.0
  0
LTYPE
  5
15
330
5
100
AcDbSymbolTableRecord
100
AcDbLinetypeTableRecord
  2
BYLAYER
 70
     0
  3

 72
    65
 73
     0
 40
0.0
  0
LTYPE
  5
16
330
5
100
AcDbSymbolTableRecord
100
AcDbLinetypeTableRecord
  2
CONTINUOUS
 70
     0
  3
Solid line
 72
    65
 73
     0
 40
0.0
  0
ENDTAB
  0
TABLE
  2
LAYER
  5
2
100
AcDbSymbolTable
 70
2
  0
LAYER
  5
50
100
AcDbSymbolTableRecord
100
AcDbLayerTableRecord
  2
0
 70
0
  6
CONTINUOUS
  0
LAYER
  5
51
100
AcDbSymbolTableRecord
100
AcDbLayerTableRecord
  2
texte_applati
 70
0
  6
CONTINUOUS
  0
ENDTAB
  0
TABLE
  2
STYLE
  5
3
330
0
100
AcDbSymbolTable
 70
     1
  0
STYLE
  5
11
330
3
100
AcDbSymbolTableRecord
100
AcDbTextStyleTableRecord
  2
STANDARD
 70
     0
 40
0.0
 41
1.0
 50
0.0
 71
     0
 42
2.5
  3
txt
  4

  0
ENDTAB
  0
TABLE
  2
VIEW
  5
6
330
0
100
AcDbSymbolTable
 70
     0
  0
ENDTAB
  0
TABLE
  2
UCS
  5
7
330
0
100
AcDbSymbolTable
 70
     0
  0
ENDTAB
  0
TABLE
  2
APPID
  5
9
330
0
100
AcDbSymbolTable
 70
     2
  0
APPID
  5
12
330
9
100
AcDbSymbolTableRecord
100
AcDbRegAppTableRecord
  2
ACAD
 70
     0
  0
ENDTAB
  0
TABLE
  2
DIMSTYLE
  5
A
330
0
100
AcDbSymbolTable
 70
     1
  0
DIMSTYLE
105
27
330
A
100
AcDbSymbolTableRecord
100
AcDbDimStyleTableRecord
  2
ISO-25
 70
     0
  3

  4

  5

  6

  7

 40
1.0
 41
2.5
 42
0.625
 43
3.75
 44
1.25
 45
0.0
 46
0.0
 47
0.0
 48
0.0
140
2.5
141
2.5
142
0.0
143
0.03937007874016
144
1.0
145
0.0
146
1.0
147
0.625
 71
     0
 72
     0
 73
     0
 74
     0
 75
     0
 76
     0
 77
     1
 78
     8
170
     0
171
     3
172
     1
173
     0
174
     0
175
     0
176
     0
177
     0
178
     0
270
     2
271
     2
272
     2
273
     2
274
     3
340
11
275
     0
280
     0
281
     0
282
     0
283
     0
284
     8
285
     0
286
     0
287
     3
288
     0
  0
ENDTAB
  0
TABLE
  2
BLOCK_RECORD
  5
1
330
0
100
AcDbSymbolTable
 70
     1
  0
BLOCK_RECORD
  5
1F
330
1
100
AcDbSymbolTableRecord
100
AcDbBlockTableRecord
  2
*MODEL_SPACE
  0
BLOCK_RECORD
  5
1B
330
1
100
AcDbSymbolTableRecord
100
AcDbBlockTableRecord
  2
*PAPER_SPACE
  0
ENDTAB
  0
ENDSEC
  0
SECTION
  2
BLOCKS
  0
BLOCK
  5
20
330
1F
100
AcDbEntity
  8
0
100
AcDbBlockBegin
  2
*MODEL_SPACE
 70
     0
 10
0.0
 20
0.0
 30
0.0
  3
*MODEL_SPACE
  1

  0
ENDBLK
  5
21
330
1F
100
AcDbEntity
  8
0
100
AcDbBlockEnd
  0
BLOCK
  5
1C
330
1B
100
AcDbEntity
 67
     1
  8
0
100
AcDbBlockBegin
  2
*PAPER_SPACE
  1

  0
ENDBLK
  5
1D
330
1B
100
AcDbEntity
 67
     1
  8
0
100
AcDbBlockEnd
  0
ENDSEC
  0
SECTION
  2
ENTITIES
  0
LWPOLYLINE
  5
100
100
AcDbEntity
  8
texte_applati
 62
7
100
AcDbPolyline
 90
52
 70
1
 10
305.126813
 20
14.564012
 30
0.0
 10
304.978647
 20
14.547079
 30
0.0
 10
304.847413
 20
14.500512
 30
0.0
 10
304.745813
 20
14.441245
 30
0.0
 10
304.652680
 20
14.365045
 30
0.0
 10
304.584947
 20
14.288845
 30
0.0
 10
304.525680
 20
14.212645
 30
0.0
 10
304.483347
 20
14.157612
 30
0.0
 10
304.483347
 20
13.086579
 30
0.0
 10
304.673847
 20
13.086579
 30
0.0
 10
304.759572
 20
13.065412
 30
0.0
 10
304.788147
 20
13.001912
 30
0.0
 10
304.759572
 20
12.935237
 30
0.0
 10
304.673847
 20
12.913012
 30
0.0
 10
304.119280
 20
12.913012
 30
0.0
 10
304.030380
 20
12.935237
 30
0.0
 10
304.000747
 20
13.001912
 30
0.0
 10
304.030380
 20
13.065412
 30
0.0
 10
304.119280
 20
13.086579
 30
0.0
 10
304.309780
 20
13.086579
 30
0.0
 10
304.309780
 20
14.504745
 30
0.0
 10
304.165847
 20
14.504745
 30
0.0
 10
304.080122
 20
14.526970
 30
0.0
 10
304.051547
 20
14.593645
 30
0.0
 10
304.080122
 20
14.657145
 30
0.0
 10
304.165847
 20
14.678312
 30
0.0
 10
304.483347
 20
14.678312
 30
0.0
 10
304.483347
 20
14.386212
 30
0.0
 10
304.805080
 20
14.661379
 30
0.0
 10
304.959597
 20
14.718529
 30
0.0
 10
305.143747
 20
14.737579
 30
0.0
 10
305.404097
 20
14.696304
 30
0.0
 10
305.617880
 20
14.572479
 30
0.0
 10
305.760755
 20
14.387270
 30
0.0
 10
305.808380
 20
14.161845
 30
0.0
 10
305.808380
 20
13.086579
 30
0.0
 10
305.952313
 20
13.086579
 30
0.0
 10
306.038038
 20
13.065412
 30
0.0
 10
306.066613
 20
13.001912
 30
0.0
 10
306.038038
 20
12.935237
 30
0.0
 10
305.952313
 20
12.913012
 30
0.0
 10
305.490880
 20
12.913012
 30
0.0
 10
305.405155
 20
12.935237
 30
0.0
 10
305.376580
 20
13.001912
 30
0.0
 10
305.405155
 20
13.065412
 30
0.0
 10
305.490880
 20
13.086579
 30
0.0
 10
305.634813
 20
13.086579
 30
0.0
 10
305.634813
 20
14.132212
 30
0.0
 10
305.599888
 20
14.299429
 30
0.0
 10
305.495113
 20
14.437012
 30
0.0
 10
305.335305
 20
14.532262
 30
0.0
 10
305.126813
 20
14.564012
 30
0.0
  0
LWPOLYLINE
  5
101
100
AcDbEntity
  8
texte_applati
 62
7
100
AcDbPolyline
 90
17
 70
1
 10
302.508047
 20
14.737579
 30
0.0
 10
302.882697
 20
14.667729
 30
0.0
 10
303.193847
 20
14.458179
 30
0.0
 10
303.403397
 20
14.151262
 30
0.0
 10
303.473247
 20
13.780845
 30
0.0
 10
303.402339
 20
13.419954
 30
0.0
 10
303.189614
 20
13.116212
 30
0.0
 10
302.877405
 20
12.913012
 30
0.0
 10
302.508047
 20
12.845279
 30
0.0
 10
302.135514
 20
12.914070
 30
0.0
 10
301.822247
 20
13.120445
 30
0.0
 10
301.612697
 20
13.426304
 30
0.0
 10
301.542847
 20
13.793545
 30
0.0
 10
301.612697
 20
14.154437
 30
0.0
 10
301.822247
 20
14.458179
 30
0.0
 10
302.135514
 20
14.667729
 30
0.0
 10
302.508047
 20
14.737579
 30
0.0
  0
LWPOLYLINE
  5
102
100
AcDbEntity
  8
texte_applati
 62
7
100
AcDbPolyline
 90
17
 70
1
 10
302.508047
 20
14.564012
 30
0.0
 10
302.202189
 20
14.507920
 30
0.0
 10
301.945014
 20
14.339645
 30
0.0
 10
301.773564
 20
14.090937
 30
0.0
 10
301.716414
 20
13.793545
 30
0.0
 10
301.773564
 20
13.495095
 30
0.0
 10
301.945014
 20
13.243212
 30
0.0
 10
302.202189
 20
13.074937
 30
0.0
 10
302.508047
 20
13.018845
 30
0.0
 10
302.810730
 20
13.074937
 30
0.0
 10
303.066847
 20
13.243212
 30
0.0
 10
303.241472
 20
13.489804
 30
0.0
 10
303.299680
 20
13.780845
 30
0.0
 10
303.242530
 20
14.087762
 30
0.0
 10
303.071080
 20
14.339645
 30
0.0
 10
302.816022
 20
14.507920
 30
0.0
 10
302.508047
 20
14.564012
 30
0.0
  0
LWPOLYLINE
  5
103
100
AcDbEntity
  8
texte_applati
 62
7
100
AcDbPolyline
 90
19
 70
1
 10
300.054354
 20
14.678312
 30
0.0
 10
300.054354
 20
13.086579
 30
0.0
 10
300.731687
 20
13.086579
 30
0.0
 10
300.820587
 20
13.065412
 30
0.0
 10
300.850221
 20
13.001912
 30
0.0
 10
300.820587
 20
12.935237
 30
0.0
 10
300.731687
 20
12.913012
 30
0.0
 10
299.203454
 20
12.913012
 30
0.0
 10
299.117729
 20
12.935237
 30
0.0
 10
299.089154
 20
13.001912
 30
0.0
 10
299.117729
 20
13.065412
 30
0.0
 10
299.203454
 20
13.086579
 30
0.0
 10
299.880787
 20
13.086579
 30
0.0
 10
299.880787
 20
14.504745
 30
0.0
 10
299.381254
 20
14.504745
 30
0.0
 10
299.295529
 20
14.526970
 30
0.0
 10
299.266954
 20
14.593645
 30
0.0
 10
299.295529
 20
14.657145
 30
0.0
 10
299.381254
 20
14.678312
 30
0.0
  0
LWPOLYLINE
  5
104
100
AcDbEntity
  8
texte_applati
 62
7
100
AcDbPolyline
 90
4
 70
1
 10
300.045887
 20
15.554612
 30
0.0
 10
300.045887
 20
15.114345
 30
0.0
 10
299.796121
 20
15.114345
 30
0.0
 10
299.796121
 20
15.554612
 30
0.0
  0
LWPOLYLINE
  5
105
100
AcDbEntity
  8
texte_applati
 62
7
100
AcDbPolyline
 90
66
 70
1
 10
298.074821
 20
13.408312
 30
0.0
 10
298.038837
 20
13.546954
 30
0.0
 10
297.930887
 20
13.649612
 30
0.0
 10
297.583754
 20
13.763912
 30
0.0
 10
297.177354
 20
13.827412
 30
0.0
 10
296.988971
 20
13.879270
 30
0.0
 10
296.830221
 20
13.967112
 30
0.0
 10
296.722271
 20
14.093054
 30
0.0
 10
296.686287
 20
14.259212
 30
0.0
 10
296.737088
 20
14.448654
 30
0.0
 10
296.889488
 20
14.602112
 30
0.0
 10
297.123379
 20
14.703712
 30
0.0
 10
297.410188
 20
14.737579
 30
0.0
 10
297.735096
 20
14.688895
 30
0.0
 10
297.990154
 20
14.542845
 30
0.0
 10
297.990154
 20
14.559779
 30
0.0
 10
298.012379
 20
14.648679
 30
0.0
 10
298.079054
 20
14.678312
 30
0.0
 10
298.142554
 20
14.648679
 30
0.0
 10
298.163721
 20
14.559779
 30
0.0
 10
298.163721
 20
14.267679
 30
0.0
 10
298.142554
 20
14.181954
 30
0.0
 10
298.079054
 20
14.153379
 30
0.0
 10
298.018729
 20
14.177720
 30
0.0
 10
297.990154
 20
14.250745
 30
0.0
 10
297.939354
 20
14.379862
 30
0.0
 10
297.820821
 20
14.479345
 30
0.0
 10
297.646196
 20
14.542845
 30
0.0
 10
297.427121
 20
14.564012
 30
0.0
 10
297.210163
 20
14.540729
 30
0.0
 10
297.033421
 20
14.470879
 30
0.0
 10
296.915946
 20
14.370337
 30
0.0
 10
296.876788
 20
14.246512
 30
0.0
 10
296.912771
 20
14.134329
 30
0.0
 10
297.020721
 20
14.051779
 30
0.0
 10
297.367854
 20
13.954412
 30
0.0
 10
297.774254
 20
13.886679
 30
0.0
 10
297.962637
 20
13.827412
 30
0.0
 10
298.121388
 20
13.725812
 30
0.0
 10
298.229337
 20
13.586112
 30
0.0
 10
298.265321
 20
13.404079
 30
0.0
 10
298.206054
 20
13.182887
 30
0.0
 10
298.028254
 20
13.001912
 30
0.0
 10
297.763671
 20
12.884437
 30
0.0
 10
297.435587
 20
12.845279
 30
0.0
 10
297.066229
 20
12.902429
 30
0.0
 10
296.770954
 20
13.073879
 30
0.0
 10
296.770954
 20
13.027312
 30
0.0
 10
296.749788
 20
12.941587
 30
0.0
 10
296.686287
 20
12.913012
 30
0.0
 10
296.619613
 20
12.941587
 30
0.0
 10
296.597388
 20
13.027312
 30
0.0
 10
296.597388
 20
13.378679
 30
0.0
 10
296.619613
 20
13.464404
 30
0.0
 10
296.686287
 20
13.492979
 30
0.0
 10
296.749788
 20
13.469695
 30
0.0
 10
296.770954
 20
13.399845
 30
0.0
 10
296.770954
 20
13.370212
 30
0.0
 10
296.818579
 20
13.235804
 30
0.0
 10
296.961454
 20
13.120445
 30
0.0
 10
297.172063
 20
13.044245
 30
0.0
 10
297.422888
 20
13.018845
 30
0.0
 10
297.679004
 20
13.046362
 30
0.0
 10
297.888554
 20
13.128912
 30
0.0
 10
298.028254
 20
13.253795
 30
0.0
 10
298.074821
 20
13.408312
 30
0.0
  0
LWPOLYLINE
  5
106
100
AcDbEntity
  8
texte_applati
 62
7
100
AcDbPolyline
 90
66
 70
1
 10
295.536461
 20
13.408312
 30
0.0
 10
295.500478
 20
13.546954
 30
0.0
 10
295.392528
 20
13.649612
 30
0.0
 10
295.045395
 20
13.763912
 30
0.0
 10
294.638995
 20
13.827412
 30
0.0
 10
294.450611
 20
13.879270
 30
0.0
 10
294.291861
 20
13.967112
 30
0.0
 10
294.183911
 20
14.093054
 30
0.0
 10
294.147928
 20
14.259212
 30
0.0
 10
294.198728
 20
14.448654
 30
0.0
 10
294.351128
 20
14.602112
 30
0.0
 10
294.585020
 20
14.703712
 30
0.0
 10
294.871828
 20
14.737579
 30
0.0
 10
295.196736
 20
14.688895
 30
0.0
 10
295.451795
 20
14.542845
 30
0.0
 10
295.451795
 20
14.559779
 30
0.0
 10
295.474020
 20
14.648679
 30
0.0
 10
295.540695
 20
14.678312
 30
0.0
 10
295.604195
 20
14.648679
 30
0.0
 10
295.625361
 20
14.559779
 30
0.0
 10
295.625361
 20
14.267679
 30
0.0
 10
295.604195
 20
14.181954
 30
0.0
 10
295.540695
 20
14.153379
 30
0.0
 10
295.480370
 20
14.177720
 30
0.0
 10
295.451795
 20
14.250745
 30
0.0
 10
295.400995
 20
14.379862
 30
0.0
 10
295.282461
 20
14.479345
 30
0.0
 10
295.107836
 20
14.542845
 30
0.0
 10
294.888761
 20
14.564012
 30
0.0
 10
294.671803
 20
14.540729
 30
0.0
 10
294.495061
 20
14.470879
 30
0.0
 10
294.377586
 20
14.370337
 30
0.0
 10
294.338428
 20
14.246512
 30
0.0
 10
294.374411
 20
14.134329
 30
0.0
 10
294.482361
 20
14.051779
 30
0.0
 10
294.829495
 20
13.954412
 30
0.0
 10
295.235895
 20
13.886679
 30
0.0
 10
295.424278
 20
13.827412
 30
0.0
 10
295.583028
 20
13.725812
 30
0.0
 10
295.690978
 20
13.586112
 30
0.0
 10
295.726961
 20
13.404079
 30
0.0
 10
295.667695
 20
13.182887
 30
0.0
 10
295.489895
 20
13.001912
 30
0.0
 10
295.225311
 20
12.884437
 30
0.0
 10
294.897228
 20
12.845279
 30
0.0
 10
294.527870
 20
12.902429
 30
0.0
 10
294.232595
 20
13.073879
 30
0.0
 10
294.232595
 20
13.027312
 30
0.0
 10
294.211428
 20
12.941587
 30
0.0
 10
294.147928
 20
12.913012
 30
0.0
 10
294.081253
 20
12.941587
 30
0.0
 10
294.059028
 20
13.027312
 30
0.0
 10
294.059028
 20
13.378679
 30
0.0
 10
294.081253
 20
13.464404
 30
0.0
 10
294.147928
 20
13.492979
 30
0.0
 10
294.211428
 20
13.469695
 30
0.0
 10
294.232595
 20
13.399845
 30
0.0
 10
294.232595
 20
13.370212
 30
0.0
 10
294.280220
 20
13.235804
 30
0.0
 10
294.423095
 20
13.120445
 30
0.0
 10
294.633703
 20
13.044245
 30
0.0
 10
294.884528
 20
13.018845
 30
0.0
 10
295.140645
 20
13.046362
 30
0.0
 10
295.350195
 20
13.128912
 30
0.0
 10
295.489895
 20
13.253795
 30
0.0
 10
295.536461
 20
13.408312
 30
0.0
  0
LWPOLYLINE
  5
107
100
AcDbEntity
  8
texte_applati
 62
7
100
AcDbPolyline
 90
28
 70
1
 10
293.285995
 20
13.755445
 30
0.0
 10
291.524928
 20
13.755445
 30
0.0
 10
291.618061
 20
13.453820
 30
0.0
 10
291.804328
 20
13.217812
 30
0.0
 10
292.064678
 20
13.068587
 30
0.0
 10
292.380061
 20
13.018845
 30
0.0
 10
292.786461
 20
13.082345
 30
0.0
 10
293.120895
 20
13.247445
 30
0.0
 10
293.188628
 20
13.277079
 30
0.0
 10
293.243661
 20
13.251679
 30
0.0
 10
293.269061
 20
13.192412
 30
0.0
 10
293.192861
 20
13.080229
 30
0.0
 10
292.964261
 20
12.963812
 30
0.0
 10
292.666870
 20
12.874912
 30
0.0
 10
292.375828
 20
12.845279
 30
0.0
 10
291.980011
 20
12.917245
 30
0.0
 10
291.647695
 20
13.133145
 30
0.0
 10
291.425445
 20
13.451704
 30
0.0
 10
291.351361
 20
13.831645
 30
0.0
 10
291.421211
 20
14.185129
 30
0.0
 10
291.630761
 20
14.475112
 30
0.0
 10
291.941911
 20
14.671962
 30
0.0
 10
292.316561
 20
14.737579
 30
0.0
 10
292.704970
 20
14.669845
 30
0.0
 10
293.015061
 20
14.466645
 30
0.0
 10
293.133595
 20
14.322183
 30
0.0
 10
293.218261
 20
14.155495
 30
0.0
 10
293.285995
 20
13.755445
 30
0.0
  0
LWPOLYLINE
  5
108
100
AcDbEntity
  8
texte_applati
 62
7
100
AcDbPolyline
 90
10
 70
1
 10
291.524928
 20
13.929012
 30
0.0
 10
293.108195
 20
13.929012
 30
0.0
 10
293.016120
 20
14.188304
 30
0.0
 10
292.841495
 20
14.390445
 30
0.0
 10
292.602311
 20
14.520620
 30
0.0
 10
292.316561
 20
14.564012
 30
0.0
 10
292.031870
 20
14.520620
 30
0.0
 10
291.795861
 20
14.390445
 30
0.0
 10
291.622295
 20
14.190420
 30
0.0
 10
291.524928
 20
13.929012
 30
0.0
  0
LWPOLYLINE
  5
109
100
AcDbEntity
  8
texte_applati
 62
7
100
AcDbPolyline
 90
35
 70
1
 10
290.747635
 20
14.369279
 30
0.0
 10
290.616402
 20
14.458179
 30
0.0
 10
290.507394
 20
14.524854
 30
0.0
 10
290.400502
 20
14.547079
 30
0.0
 10
290.253394
 20
14.521679
 30
0.0
 10
290.099935
 20
14.445479
 30
0.0
 10
289.596169
 20
14.022145
 30
0.0
 10
289.596169
 20
13.086579
 30
0.0
 10
290.353935
 20
13.086579
 30
0.0
 10
290.439660
 20
13.064354
 30
0.0
 10
290.468235
 20
12.997679
 30
0.0
 10
290.439660
 20
12.934179
 30
0.0
 10
290.353935
 20
12.913012
 30
0.0
 10
289.016202
 20
12.913012
 30
0.0
 10
288.930477
 20
12.935237
 30
0.0
 10
288.901902
 20
13.001912
 30
0.0
 10
288.930477
 20
13.065412
 30
0.0
 10
289.016202
 20
13.086579
 30
0.0
 10
289.422602
 20
13.086579
 30
0.0
 10
289.422602
 20
14.504745
 30
0.0
 10
289.105102
 20
14.504745
 30
0.0
 10
289.019377
 20
14.526970
 30
0.0
 10
288.990802
 20
14.593645
 30
0.0
 10
289.019377
 20
14.657145
 30
0.0
 10
289.105102
 20
14.678312
 30
0.0
 10
289.596169
 20
14.678312
 30
0.0
 10
289.596169
 20
14.246512
 30
0.0
 10
290.070302
 20
14.614812
 30
0.0
 10
290.247044
 20
14.694187
 30
0.0
 10
290.413202
 20
14.720645
 30
0.0
 10
290.571952
 20
14.695245
 30
0.0
 10
290.709535
 20
14.619045
 30
0.0
 10
290.836535
 20
14.458179
 30
0.0
 10
290.811135
 20
14.394679
 30
0.0
 10
290.747635
 20
14.369279
 30
0.0
  0
LWPOLYLINE
  5
10a
100
AcDbEntity
  8
texte_applati
 62
7
100
AcDbPolyline
 90
36
 70
1
 10
286.617569
 20
14.678312
 30
0.0
 10
286.617569
 20
14.331179
 30
0.0
 10
286.787960
 20
14.519562
 30
0.0
 10
286.960469
 20
14.644445
 30
0.0
 10
287.150969
 20
14.714295
 30
0.0
 10
287.375335
 20
14.737579
 30
0.0
 10
287.736227
 20
14.673020
 30
0.0
 10
288.031502
 20
14.479345
 30
0.0
 10
288.231527
 20
14.194654
 30
0.0
 10
288.298202
 20
13.848579
 30
0.0
 10
288.231527
 20
13.501445
 30
0.0
 10
288.031502
 20
13.213579
 30
0.0
 10
287.734110
 20
13.019904
 30
0.0
 10
287.375335
 20
12.955345
 30
0.0
 10
287.150175
 20
12.980745
 30
0.0
 10
286.948827
 20
13.056945
 30
0.0
 10
286.771292
 20
13.183945
 30
0.0
 10
286.617569
 20
13.361745
 30
0.0
 10
286.617569
 20
12.299179
 30
0.0
 10
287.032435
 20
12.299179
 30
0.0
 10
287.118160
 20
12.278012
 30
0.0
 10
287.146735
 20
12.214512
 30
0.0
 10
287.118160
 20
12.147837
 30
0.0
 10
287.032435
 20
12.125612
 30
0.0
 10
286.215402
 20
12.125612
 30
0.0
 10
286.129677
 20
12.147837
 30
0.0
 10
286.101102
 20
12.214512
 30
0.0
 10
286.129677
 20
12.278012
 30
0.0
 10
286.215402
 20
12.299179
 30
0.0
 10
286.444002
 20
12.299179
 30
0.0
 10
286.444002
 20
14.504745
 30
0.0
 10
286.215402
 20
14.504745
 30
0.0
 10
286.129677
 20
14.526970
 30
0.0
 10
286.101102
 20
14.593645
 30
0.0
 10
286.129677
 20
14.657145
 30
0.0
 10
286.215402
 20
14.678312
 30
0.0
  0
LWPOLYLINE
  5
10b
100
AcDbEntity
  8
texte_applati
 62
7
100
AcDbPolyline
 90
17
 70
1
 10
287.371102
 20
14.564012
 30
0.0
 10
287.081119
 20
14.511095
 30
0.0
 10
286.837702
 20
14.352345
 30
0.0
 10
286.672602
 20
14.122687
 30
0.0
 10
286.617569
 20
13.848579
 30
0.0
 10
286.672602
 20
13.570237
 30
0.0
 10
286.837702
 20
13.336345
 30
0.0
 10
287.081119
 20
13.180770
 30
0.0
 10
287.371102
 20
13.128912
 30
0.0
 10
287.661085
 20
13.180770
 30
0.0
 10
287.904502
 20
13.336345
 30
0.0
 10
288.069602
 20
13.566004
 30
0.0
 10
288.124635
 20
13.840112
 30
0.0
 10
288.070660
 20
14.123745
 30
0.0
 10
287.908735
 20
14.356579
 30
0.0
 10
287.666377
 20
14.512154
 30
0.0
 10
287.371102
 20
14.564012
 30
0.0
  0
LWPOLYLINE
  5
10c
100
AcDbEntity
  8
texte_applati
 62
7
100
AcDbPolyline
 90
52
 70
1
 10
284.862376
 20
13.840112
 30
0.0
 10
285.641309
 20
13.086579
 30
0.0
 10
285.679409
 20
13.086579
 30
0.0
 10
285.765134
 20
13.065412
 30
0.0
 10
285.793709
 20
13.001912
 30
0.0
 10
285.765134
 20
12.935237
 30
0.0
 10
285.679409
 20
12.913012
 30
0.0
 10
285.120609
 20
12.913012
 30
0.0
 10
285.034884
 20
12.935237
 30
0.0
 10
285.006309
 20
13.001912
 30
0.0
 10
285.034884
 20
13.065412
 30
0.0
 10
285.120609
 20
13.086579
 30
0.0
 10
285.395776
 20
13.086579
 30
0.0
 10
284.739609
 20
13.717345
 30
0.0
 10
284.074976
 20
13.086579
 30
0.0
 10
284.362842
 20
13.086579
 30
0.0
 10
284.448568
 20
13.065412
 30
0.0
 10
284.477143
 20
13.001912
 30
0.0
 10
284.448568
 20
12.935237
 30
0.0
 10
284.362842
 20
12.913012
 30
0.0
 10
283.799809
 20
12.913012
 30
0.0
 10
283.714084
 20
12.935237
 30
0.0
 10
283.685509
 20
13.001912
 30
0.0
 10
283.714084
 20
13.065412
 30
0.0
 10
283.799809
 20
13.086579
 30
0.0
 10
283.837909
 20
13.086579
 30
0.0
 10
284.616843
 20
13.840112
 30
0.0
 10
283.926809
 20
14.504745
 30
0.0
 10
283.897176
 20
14.504745
 30
0.0
 10
283.811451
 20
14.526970
 30
0.0
 10
283.782876
 20
14.593645
 30
0.0
 10
283.811451
 20
14.657145
 30
0.0
 10
283.897176
 20
14.678312
 30
0.0
 10
284.367076
 20
14.678312
 30
0.0
 10
284.452801
 20
14.657145
 30
0.0
 10
284.481376
 20
14.593645
 30
0.0
 10
284.452801
 20
14.526970
 30
0.0
 10
284.367076
 20
14.504745
 30
0.0
 10
284.172343
 20
14.504745
 30
0.0
 10
284.739609
 20
13.954412
 30
0.0
 10
285.319576
 20
14.504745
 30
0.0
 10
285.116376
 20
14.504745
 30
0.0
 10
285.030651
 20
14.526970
 30
0.0
 10
285.002076
 20
14.593645
 30
0.0
 10
285.030651
 20
14.657145
 30
0.0
 10
285.116376
 20
14.678312
 30
0.0
 10
285.582043
 20
14.678312
 30
0.0
 10
285.667768
 20
14.657145
 30
0.0
 10
285.696343
 20
14.593645
 30
0.0
 10
285.667768
 20
14.526970
 30
0.0
 10
285.582043
 20
14.504745
 30
0.0
 10
285.552409
 20
14.504745
 30
0.0
  0
LWPOLYLINE
  5
10d
100
AcDbEntity
  8
texte_applati
 62
7
100
AcDbPolyline
 90
28
 70
1
 10
283.132609
 20
13.755445
 30
0.0
 10
281.371543
 20
13.755445
 30
0.0
 10
281.464676
 20
13.453820
 30
0.0
 10
281.650943
 20
13.217812
 30
0.0
 10
281.911293
 20
13.068587
 30
0.0
 10
282.226676
 20
13.018845
 30
0.0
 10
282.633076
 20
13.082345
 30
0.0
 10
282.967509
 20
13.247445
 30
0.0
 10
283.035243
 20
13.277079
 30
0.0
 10
283.090276
 20
13.251679
 30
0.0
 10
283.115676
 20
13.192412
 30
0.0
 10
283.039476
 20
13.080229
 30
0.0
 10
282.810876
 20
12.963812
 30
0.0
 10
282.513484
 20
12.874912
 30
0.0
 10
282.222443
 20
12.845279
 30
0.0
 10
281.826626
 20
12.917245
 30
0.0
 10
281.494309
 20
13.133145
 30
0.0
 10
281.272059
 20
13.451704
 30
0.0
 10
281.197976
 20
13.831645
 30
0.0
 10
281.267826
 20
14.185129
 30
0.0
 10
281.477376
 20
14.475112
 30
0.0
 10
281.788526
 20
14.671962
 30
0.0
 10
282.163176
 20
14.737579
 30
0.0
 10
282.551584
 20
14.669845
 30
0.0
 10
282.861676
 20
14.466645
 30
0.0
 10
282.980209
 20
14.322183
 30
0.0
 10
283.064876
 20
14.155495
 30
0.0
 10
283.132609
 20
13.755445
 30
0.0
  0
LWPOLYLINE
  5
10e
100
AcDbEntity
  8
texte_applati
 62
7
100
AcDbPolyline
 90
10
 70
1
 10
281.371543
 20
13.929012
 30
0.0
 10
282.954809
 20
13.929012
 30
0.0
 10
282.862734
 20
14.188304
 30
0.0
 10
282.688109
 20
14.390445
 30
0.0
 10
282.448926
 20
14.520620
 30
0.0
 10
282.163176
 20
14.564012
 30
0.0
 10
281.878484
 20
14.520620
 30
0.0
 10
281.642476
 20
14.390445
 30
0.0
 10
281.468909
 20
14.190420
 30
0.0
 10
281.371543
 20
13.929012
 30
0.0
  0
LWPOLYLINE
  5
10f
100
AcDbEntity
  8
texte_applati
 62
7
100
AcDbPolyline
 90
52
 70
1
 10
276.234631
 20
14.564012
 30
0.0
 10
276.086464
 20
14.547079
 30
0.0
 10
275.955231
 20
14.500512
 30
0.0
 10
275.853631
 20
14.441245
 30
0.0
 10
275.760498
 20
14.365045
 30
0.0
 10
275.692764
 20
14.288845
 30
0.0
 10
275.633498
 20
14.212645
 30
0.0
 10
275.591164
 20
14.157612
 30
0.0
 10
275.591164
 20
13.086579
 30
0.0
 10
275.781664
 20
13.086579
 30
0.0
 10
275.867389
 20
13.065412
 30
0.0
 10
275.895964
 20
13.001912
 30
0.0
 10
275.867389
 20
12.935237
 30
0.0
 10
275.781664
 20
12.913012
 30
0.0
 10
275.227098
 20
12.913012
 30
0.0
 10
275.138197
 20
12.935237
 30
0.0
 10
275.108564
 20
13.001912
 30
0.0
 10
275.138197
 20
13.065412
 30
0.0
 10
275.227098
 20
13.086579
 30
0.0
 10
275.417597
 20
13.086579
 30
0.0
 10
275.417597
 20
14.504745
 30
0.0
 10
275.273664
 20
14.504745
 30
0.0
 10
275.187939
 20
14.526970
 30
0.0
 10
275.159364
 20
14.593645
 30
0.0
 10
275.187939
 20
14.657145
 30
0.0
 10
275.273664
 20
14.678312
 30
0.0
 10
275.591164
 20
14.678312
 30
0.0
 10
275.591164
 20
14.386212
 30
0.0
 10
275.912898
 20
14.661379
 30
0.0
 10
276.067414
 20
14.718529
 30
0.0
 10
276.251564
 20
14.737579
 30
0.0
 10
276.511914
 20
14.696304
 30
0.0
 10
276.725697
 20
14.572479
 30
0.0
 10
276.868572
 20
14.387270
 30
0.0
 10
276.916198
 20
14.161845
 30
0.0
 10
276.916198
 20
13.086579
 30
0.0
 10
277.060131
 20
13.086579
 30
0.0
 10
277.145856
 20
13.065412
 30
0.0
 10
277.174431
 20
13.001912
 30
0.0
 10
277.145856
 20
12.935237
 30
0.0
 10
277.060131
 20
12.913012
 30
0.0
 10
276.598698
 20
12.913012
 30
0.0
 10
276.512973
 20
12.935237
 30
0.0
 10
276.484398
 20
13.001912
 30
0.0
 10
276.512973
 20
13.065412
 30
0.0
 10
276.598698
 20
13.086579
 30
0.0
 10
276.742631
 20
13.086579
 30
0.0
 10
276.742631
 20
14.132212
 30
0.0
 10
276.707706
 20
14.299429
 30
0.0
 10
276.602931
 20
14.437012
 30
0.0
 10
276.443123
 20
14.532262
 30
0.0
 10
276.234631
 20
14.564012
 30
0.0
  0
LWPOLYLINE
  5
110
100
AcDbEntity
  8
texte_applati
 62
7
100
AcDbPolyline
 90
19
 70
1
 10
273.700505
 20
14.678312
 30
0.0
 10
273.700505
 20
13.086579
 30
0.0
 10
274.377838
 20
13.086579
 30
0.0
 10
274.466738
 20
13.065412
 30
0.0
 10
274.496371
 20
13.001912
 30
0.0
 10
274.466738
 20
12.935237
 30
0.0
 10
274.377838
 20
12.913012
 30
0.0
 10
272.849605
 20
12.913012
 30
0.0
 10
272.763880
 20
12.935237
 30
0.0
 10
272.735305
 20
13.001912
 30
0.0
 10
272.763880
 20
13.065412
 30
0.0
 10
272.849605
 20
13.086579
 30
0.0
 10
273.526938
 20
13.086579
 30
0.0
 10
273.526938
 20
14.504745
 30
0.0
 10
273.027405
 20
14.504745
 30
0.0
 10
272.941680
 20
14.526970
 30
0.0
 10
272.913105
 20
14.593645
 30
0.0
 10
272.941680
 20
14.657145
 30
0.0
 10
273.027405
 20
14.678312
 30
0.0
  0
LWPOLYLINE
  5
111
100
AcDbEntity
  8
texte_applati
 62
7
100
AcDbPolyline
 90
4
 70
1
 10
273.692038
 20
15.554612
 30
0.0
 10
273.692038
 20
15.114345
 30
0.0
 10
273.442271
 20
15.114345
 30
0.0
 10
273.442271
 20
15.554612
 30
0.0
  0
LWPOLYLINE
  5
112
100
AcDbEntity
  8
texte_applati
 62
7
100
AcDbPolyline
 90
38
 70
1
 10
270.336671
 20
14.513212
 30
0.0
 10
270.408638
 20
14.598937
 30
0.0
 10
270.624538
 20
14.669845
 30
0.0
 10
271.073271
 20
14.737579
 30
0.0
 10
271.343146
 20
14.700537
 30
0.0
 10
271.560105
 20
14.589412
 30
0.0
 10
271.706155
 20
14.422195
 30
0.0
 10
271.754838
 20
14.216879
 30
0.0
 10
271.754838
 20
13.086579
 30
0.0
 10
271.983438
 20
13.086579
 30
0.0
 10
272.069163
 20
13.065412
 30
0.0
 10
272.097738
 20
13.001912
 30
0.0
 10
272.069163
 20
12.935237
 30
0.0
 10
271.983438
 20
12.913012
 30
0.0
 10
271.581271
 20
12.913012
 30
0.0
 10
271.581271
 20
13.196645
 30
0.0
 10
271.389449
 20
13.042923
 30
0.0
 10
271.190746
 20
12.933120
 30
0.0
 10
270.985165
 20
12.867239
 30
0.0
 10
270.772705
 20
12.845279
 30
0.0
 10
270.504946
 20
12.882320
 30
0.0
 10
270.294338
 20
12.993445
 30
0.0
 10
270.157813
 20
13.168070
 30
0.0
 10
270.112305
 20
13.387145
 30
0.0
 10
270.173688
 20
13.635854
 30
0.0
 10
270.357838
 20
13.831645
 30
0.0
 10
270.644646
 20
13.961820
 30
0.0
 10
271.005538
 20
14.005212
 30
0.0
 10
271.581271
 20
13.916312
 30
0.0
 10
271.581271
 20
14.216879
 30
0.0
 10
271.545288
 20
14.357637
 30
0.0
 10
271.437338
 20
14.466645
 30
0.0
 10
271.271180
 20
14.539670
 30
0.0
 10
271.060571
 20
14.564012
 30
0.0
 10
270.658405
 20
14.496279
 30
0.0
 10
270.417105
 20
14.428545
 30
0.0
 10
270.357838
 20
14.453945
 30
0.0
 10
270.336671
 20
14.513212
 30
0.0
  0
LWPOLYLINE
  5
113
100
AcDbEntity
  8
texte_applati
 62
7
100
AcDbPolyline
 90
15
 70
1
 10
271.581271
 20
13.387145
 30
0.0
 10
271.581271
 20
13.768145
 30
0.0
 10
271.039405
 20
13.831645
 30
0.0
 10
270.735663
 20
13.799895
 30
0.0
 10
270.493305
 20
13.704645
 30
0.0
 10
270.337730
 20
13.562829
 30
0.0
 10
270.285871
 20
13.382912
 30
0.0
 10
270.318680
 20
13.233687
 30
0.0
 10
270.417105
 20
13.116212
 30
0.0
 10
270.570563
 20
13.043187
 30
0.0
 10
270.768471
 20
13.018845
 30
0.0
 10
270.983313
 20
13.040012
 30
0.0
 10
271.179105
 20
13.103512
 30
0.0
 10
271.374896
 20
13.216754
 30
0.0
 10
271.581271
 20
13.387145
 30
0.0
  0
LWPOLYLINE
  5
114
100
AcDbEntity
  8
texte_applati
 62
7
100
AcDbPolyline
 90
37
 70
1
 10
268.056545
 20
14.678312
 30
0.0
 10
268.987879
 20
14.678312
 30
0.0
 10
269.073604
 20
14.657145
 30
0.0
 10
269.102179
 20
14.593645
 30
0.0
 10
269.073604
 20
14.526970
 30
0.0
 10
268.987879
 20
14.504745
 30
0.0
 10
268.056545
 20
14.504745
 30
0.0
 10
268.056545
 20
13.374445
 30
0.0
 10
268.088295
 20
13.229454
 30
0.0
 10
268.183545
 20
13.116212
 30
0.0
 10
268.333829
 20
13.043187
 30
0.0
 10
268.530679
 20
13.018845
 30
0.0
 10
268.907445
 20
13.065412
 30
0.0
 10
269.233412
 20
13.188179
 30
0.0
 10
269.301145
 20
13.213579
 30
0.0
 10
269.356179
 20
13.188179
 30
0.0
 10
269.381579
 20
13.128912
 30
0.0
 10
269.309612
 20
13.034720
 30
0.0
 10
269.093712
 20
12.938412
 30
0.0
 10
268.813254
 20
12.868562
 30
0.0
 10
268.539145
 20
12.845279
 30
0.0
 10
268.269270
 20
12.880204
 30
0.0
 10
268.060779
 20
12.984979
 30
0.0
 10
267.927429
 20
13.152195
 30
0.0
 10
267.882979
 20
13.365979
 30
0.0
 10
267.882979
 20
14.504745
 30
0.0
 10
267.569712
 20
14.504745
 30
0.0
 10
267.480812
 20
14.526970
 30
0.0
 10
267.451179
 20
14.593645
 30
0.0
 10
267.480812
 20
14.657145
 30
0.0
 10
267.569712
 20
14.678312
 30
0.0
 10
267.882979
 20
14.678312
 30
0.0
 10
267.882979
 20
15.182079
 30
0.0
 10
267.905204
 20
15.267804
 30
0.0
 10
267.971879
 20
15.296379
 30
0.0
 10
268.035379
 20
15.267804
 30
0.0
 10
268.056545
 20
15.182079
 30
0.0
  0
LWPOLYLINE
  5
115
100
AcDbEntity
  8
texte_applati
 62
7
100
AcDbPolyline
 90
66
 70
1
 10
266.644279
 20
13.408312
 30
0.0
 10
266.608295
 20
13.546954
 30
0.0
 10
266.500345
 20
13.649612
 30
0.0
 10
266.153212
 20
13.763912
 30
0.0
 10
265.746812
 20
13.827412
 30
0.0
 10
265.558429
 20
13.879270
 30
0.0
 10
265.399679
 20
13.967112
 30
0.0
 10
265.291729
 20
14.093054
 30
0.0
 10
265.255745
 20
14.259212
 30
0.0
 10
265.306545
 20
14.448654
 30
0.0
 10
265.458945
 20
14.602112
 30
0.0
 10
265.692837
 20
14.703712
 30
0.0
 10
265.979645
 20
14.737579
 30
0.0
 10
266.304554
 20
14.688895
 30
0.0
 10
266.559612
 20
14.542845
 30
0.0
 10
266.559612
 20
14.559779
 30
0.0
 10
266.581837
 20
14.648679
 30
0.0
 10
266.648512
 20
14.678312
 30
0.0
 10
266.712012
 20
14.648679
 30
0.0
 10
266.733179
 20
14.559779
 30
0.0
 10
266.733179
 20
14.267679
 30
0.0
 10
266.712012
 20
14.181954
 30
0.0
 10
266.648512
 20
14.153379
 30
0.0
 10
266.588187
 20
14.177720
 30
0.0
 10
266.559612
 20
14.250745
 30
0.0
 10
266.508812
 20
14.379862
 30
0.0
 10
266.390279
 20
14.479345
 30
0.0
 10
266.215654
 20
14.542845
 30
0.0
 10
265.996579
 20
14.564012
 30
0.0
 10
265.779620
 20
14.540729
 30
0.0
 10
265.602879
 20
14.470879
 30
0.0
 10
265.485404
 20
14.370337
 30
0.0
 10
265.446245
 20
14.246512
 30
0.0
 10
265.482229
 20
14.134329
 30
0.0
 10
265.590179
 20
14.051779
 30
0.0
 10
265.937312
 20
13.954412
 30
0.0
 10
266.343712
 20
13.886679
 30
0.0
 10
266.532095
 20
13.827412
 30
0.0
 10
266.690845
 20
13.725812
 30
0.0
 10
266.798795
 20
13.586112
 30
0.0
 10
266.834779
 20
13.404079
 30
0.0
 10
266.775512
 20
13.182887
 30
0.0
 10
266.597712
 20
13.001912
 30
0.0
 10
266.333129
 20
12.884437
 30
0.0
 10
266.005045
 20
12.845279
 30
0.0
 10
265.635687
 20
12.902429
 30
0.0
 10
265.340412
 20
13.073879
 30
0.0
 10
265.340412
 20
13.027312
 30
0.0
 10
265.319245
 20
12.941587
 30
0.0
 10
265.255745
 20
12.913012
 30
0.0
 10
265.189070
 20
12.941587
 30
0.0
 10
265.166845
 20
13.027312
 30
0.0
 10
265.166845
 20
13.378679
 30
0.0
 10
265.189070
 20
13.464404
 30
0.0
 10
265.255745
 20
13.492979
 30
0.0
 10
265.319245
 20
13.469695
 30
0.0
 10
265.340412
 20
13.399845
 30
0.0
 10
265.340412
 20
13.370212
 30
0.0
 10
265.388037
 20
13.235804
 30
0.0
 10
265.530912
 20
13.120445
 30
0.0
 10
265.741520
 20
13.044245
 30
0.0
 10
265.992345
 20
13.018845
 30
0.0
 10
266.248462
 20
13.046362
 30
0.0
 10
266.458012
 20
13.128912
 30
0.0
 10
266.597712
 20
13.253795
 30
0.0
 10
266.644279
 20
13.408312
 30
0.0
  0
LWPOLYLINE
  5
116
100
AcDbEntity
  8
texte_applati
 62
7
100
AcDbPolyline
 90
39
 70
1
 10
264.050891
 20
12.913012
 30
0.0
 10
264.050891
 20
13.192412
 30
0.0
 10
263.869387
 20
13.040541
 30
0.0
 10
263.680474
 20
12.932062
 30
0.0
 10
263.484154
 20
12.866975
 30
0.0
 10
263.280424
 20
12.845279
 30
0.0
 10
263.050766
 20
12.883379
 30
0.0
 10
262.869791
 20
12.997679
 30
0.0
 10
262.755491
 20
13.174420
 30
0.0
 10
262.717391
 20
13.399845
 30
0.0
 10
262.717391
 20
14.504745
 30
0.0
 10
262.488791
 20
14.504745
 30
0.0
 10
262.403066
 20
14.526970
 30
0.0
 10
262.374491
 20
14.593645
 30
0.0
 10
262.403066
 20
14.657145
 30
0.0
 10
262.488791
 20
14.678312
 30
0.0
 10
262.890958
 20
14.678312
 30
0.0
 10
262.890958
 20
13.399845
 30
0.0
 10
262.918474
 20
13.251679
 30
0.0
 10
263.001024
 20
13.128912
 30
0.0
 10
263.126966
 20
13.046362
 30
0.0
 10
263.276191
 20
13.018845
 30
0.0
 10
263.483360
 20
13.042658
 30
0.0
 10
263.681533
 20
13.114095
 30
0.0
 10
263.870710
 20
13.233158
 30
0.0
 10
264.050891
 20
13.399845
 30
0.0
 10
264.050891
 20
14.504745
 30
0.0
 10
263.737624
 20
14.504745
 30
0.0
 10
263.648724
 20
14.526970
 30
0.0
 10
263.619091
 20
14.593645
 30
0.0
 10
263.648724
 20
14.657145
 30
0.0
 10
263.737624
 20
14.678312
 30
0.0
 10
264.224458
 20
14.678312
 30
0.0
 10
264.224458
 20
13.086579
 30
0.0
 10
264.368391
 20
13.086579
 30
0.0
 10
264.454116
 20
13.065412
 30
0.0
 10
264.482691
 20
13.001912
 30
0.0
 10
264.454116
 20
12.935237
 30
0.0
 10
264.368391
 20
12.913012
 30
0.0
  0
LWPOLYLINE
  5
117
100
AcDbEntity
  8
texte_applati
 62
7
100
AcDbPolyline
 90
66
 70
1
 10
261.567578
 20
13.408312
 30
0.0
 10
261.531595
 20
13.546954
 30
0.0
 10
261.423645
 20
13.649612
 30
0.0
 10
261.076511
 20
13.763912
 30
0.0
 10
260.670111
 20
13.827412
 30
0.0
 10
260.481728
 20
13.879270
 30
0.0
 10
260.322978
 20
13.967112
 30
0.0
 10
260.215028
 20
14.093054
 30
0.0
 10
260.179045
 20
14.259212
 30
0.0
 10
260.229845
 20
14.448654
 30
0.0
 10
260.382245
 20
14.602112
 30
0.0
 10
260.616136
 20
14.703712
 30
0.0
 10
260.902945
 20
14.737579
 30
0.0
 10
261.227853
 20
14.688895
 30
0.0
 10
261.482911
 20
14.542845
 30
0.0
 10
261.482911
 20
14.559779
 30
0.0
 10
261.505136
 20
14.648679
 30
0.0
 10
261.571811
 20
14.678312
 30
0.0
 10
261.635311
 20
14.648679
 30
0.0
 10
261.656478
 20
14.559779
 30
0.0
 10
261.656478
 20
14.267679
 30
0.0
 10
261.635311
 20
14.181954
 30
0.0
 10
261.571811
 20
14.153379
 30
0.0
 10
261.511486
 20
14.177720
 30
0.0
 10
261.482911
 20
14.250745
 30
0.0
 10
261.432111
 20
14.379862
 30
0.0
 10
261.313578
 20
14.479345
 30
0.0
 10
261.138953
 20
14.542845
 30
0.0
 10
260.919878
 20
14.564012
 30
0.0
 10
260.702920
 20
14.540729
 30
0.0
 10
260.526178
 20
14.470879
 30
0.0
 10
260.408703
 20
14.370337
 30
0.0
 10
260.369545
 20
14.246512
 30
0.0
 10
260.405528
 20
14.134329
 30
0.0
 10
260.513478
 20
14.051779
 30
0.0
 10
260.860611
 20
13.954412
 30
0.0
 10
261.267011
 20
13.886679
 30
0.0
 10
261.455395
 20
13.827412
 30
0.0
 10
261.614145
 20
13.725812
 30
0.0
 10
261.722095
 20
13.586112
 30
0.0
 10
261.758078
 20
13.404079
 30
0.0
 10
261.698811
 20
13.182887
 30
0.0
 10
261.521011
 20
13.001912
 30
0.0
 10
261.256428
 20
12.884437
 30
0.0
 10
260.928345
 20
12.845279
 30
0.0
 10
260.558986
 20
12.902429
 30
0.0
 10
260.263711
 20
13.073879
 30
0.0
 10
260.263711
 20
13.027312
 30
0.0
 10
260.242545
 20
12.941587
 30
0.0
 10
260.179045
 20
12.913012
 30
0.0
 10
260.112370
 20
12.941587
 30
0.0
 10
260.090145
 20
13.027312
 30
0.0
 10
260.090145
 20
13.378679
 30
0.0
 10
260.112370
 20
13.464404
 30
0.0
 10
260.179045
 20
13.492979
 30
0.0
 10
260.242545
 20
13.469695
 30
0.0
 10
260.263711
 20
13.399845
 30
0.0
 10
260.263711
 20
13.370212
 30
0.0
 10
260.311336
 20
13.235804
 30
0.0
 10
260.454211
 20
13.120445
 30
0.0
 10
260.664820
 20
13.044245
 30
0.0
 10
260.915645
 20
13.018845
 30
0.0
 10
261.171761
 20
13.046362
 30
0.0
 10
261.381311
 20
13.128912
 30
0.0
 10
261.521011
 20
13.253795
 30
0.0
 10
261.567578
 20
13.408312
 30
0.0
  0
LWPOLYLINE
  5
118
100
AcDbEntity
  8
texte_applati
 62
7
100
AcDbPolyline
 90
52
 70
1
 10
204.938895
 20
14.564012
 30
0.0
 10
204.790728
 20
14.547079
 30
0.0
 10
204.659495
 20
14.500512
 30
0.0
 10
204.557895
 20
14.441245
 30
0.0
 10
204.464761
 20
14.365045
 30
0.0
 10
204.397028
 20
14.288845
 30
0.0
 10
204.337761
 20
14.212645
 30
0.0
 10
204.295428
 20
14.157612
 30
0.0
 10
204.295428
 20
13.086579
 30
0.0
 10
204.485928
 20
13.086579
 30
0.0
 10
204.571653
 20
13.065412
 30
0.0
 10
204.600228
 20
13.001912
 30
0.0
 10
204.571653
 20
12.935237
 30
0.0
 10
204.485928
 20
12.913012
 30
0.0
 10
203.931361
 20
12.913012
 30
0.0
 10
203.842461
 20
12.935237
 30
0.0
 10
203.812828
 20
13.001912
 30
0.0
 10
203.842461
 20
13.065412
 30
0.0
 10
203.931361
 20
13.086579
 30
0.0
 10
204.121861
 20
13.086579
 30
0.0
 10
204.121861
 20
14.504745
 30
0.0
 10
203.977928
 20
14.504745
 30
0.0
 10
203.892203
 20
14.526970
 30
0.0
 10
203.863628
 20
14.593645
 30
0.0
 10
203.892203
 20
14.657145
 30
0.0
 10
203.977928
 20
14.678312
 30
0.0
 10
204.295428
 20
14.678312
 30
0.0
 10
204.295428
 20
14.386212
 30
0.0
 10
204.617161
 20
14.661379
 30
0.0
 10
204.771678
 20
14.718529
 30
0.0
 10
204.955828
 20
14.737579
 30
0.0
 10
205.216178
 20
14.696304
 30
0.0
 10
205.429961
 20
14.572479
 30
0.0
 10
205.572836
 20
14.387270
 30
0.0
 10
205.620461
 20
14.161845
 30
0.0
 10
205.620461
 20
13.086579
 30
0.0
 10
205.764395
 20
13.086579
 30
0.0
 10
205.850120
 20
13.065412
 30
0.0
 10
205.878695
 20
13.001912
 30
0.0
 10
205.850120
 20
12.935237
 30
0.0
 10
205.764395
 20
12.913012
 30
0.0
 10
205.302961
 20
12.913012
 30
0.0
 10
205.217236
 20
12.935237
 30
0.0
 10
205.188661
 20
13.001912
 30
0.0
 10
205.217236
 20
13.065412
 30
0.0
 10
205.302961
 20
13.086579
 30
0.0
 10
205.446895
 20
13.086579
 30
0.0
 10
205.446895
 20
14.132212
 30
0.0
 10
205.411970
 20
14.299429
 30
0.0
 10
205.307195
 20
14.437012
 30
0.0
 10
205.147386
 20
14.532262
 30
0.0
 10
204.938895
 20
14.564012
 30
0.0
  0
LWPOLYLINE
  5
119
100
AcDbEntity
  8
texte_applati
 62
7
100
AcDbPolyline
 90
19
 70
1
 10
202.404782
 20
14.678312
 30
0.0
 10
202.404782
 20
13.086579
 30
0.0
 10
203.082115
 20
13.086579
 30
0.0
 10
203.171015
 20
13.065412
 30
0.0
 10
203.200648
 20
13.001912
 30
0.0
 10
203.171015
 20
12.935237
 30
0.0
 10
203.082115
 20
12.913012
 30
0.0
 10
201.553882
 20
12.913012
 30
0.0
 10
201.468157
 20
12.935237
 30
0.0
 10
201.439582
 20
13.001912
 30
0.0
 10
201.468157
 20
13.065412
 30
0.0
 10
201.553882
 20
13.086579
 30
0.0
 10
202.231215
 20
13.086579
 30
0.0
 10
202.231215
 20
14.504745
 30
0.0
 10
201.731682
 20
14.504745
 30
0.0
 10
201.645957
 20
14.526970
 30
0.0
 10
201.617382
 20
14.593645
 30
0.0
 10
201.645957
 20
14.657145
 30
0.0
 10
201.731682
 20
14.678312
 30
0.0
  0
LWPOLYLINE
  5
11a
100
AcDbEntity
  8
texte_applati
 62
7
100
AcDbPolyline
 90
4
 70
1
 10
202.396315
 20
15.554612
 30
0.0
 10
202.396315
 20
15.114345
 30
0.0
 10
202.146548
 20
15.114345
 30
0.0
 10
202.146548
 20
15.554612
 30
0.0
  0
LWPOLYLINE
  5
11b
100
AcDbEntity
  8
texte_applati
 62
7
100
AcDbPolyline
 90
37
 70
1
 10
146.499969
 20
14.678312
 30
0.0
 10
147.431302
 20
14.678312
 30
0.0
 10
147.517027
 20
14.657145
 30
0.0
 10
147.545602
 20
14.593645
 30
0.0
 10
147.517027
 20
14.526970
 30
0.0
 10
147.431302
 20
14.504745
 30
0.0
 10
146.499969
 20
14.504745
 30
0.0
 10
146.499969
 20
13.374445
 30
0.0
 10
146.531719
 20
13.229454
 30
0.0
 10
146.626969
 20
13.116212
 30
0.0
 10
146.777252
 20
13.043187
 30
0.0
 10
146.974102
 20
13.018845
 30
0.0
 10
147.350869
 20
13.065412
 30
0.0
 10
147.676836
 20
13.188179
 30
0.0
 10
147.744569
 20
13.213579
 30
0.0
 10
147.799602
 20
13.188179
 30
0.0
 10
147.825002
 20
13.128912
 30
0.0
 10
147.753036
 20
13.034720
 30
0.0
 10
147.537136
 20
12.938412
 30
0.0
 10
147.256677
 20
12.868562
 30
0.0
 10
146.982569
 20
12.845279
 30
0.0
 10
146.712694
 20
12.880204
 30
0.0
 10
146.504202
 20
12.984979
 30
0.0
 10
146.370852
 20
13.152195
 30
0.0
 10
146.326402
 20
13.365979
 30
0.0
 10
146.326402
 20
14.504745
 30
0.0
 10
146.013136
 20
14.504745
 30
0.0
 10
145.924236
 20
14.526970
 30
0.0
 10
145.894602
 20
14.593645
 30
0.0
 10
145.924236
 20
14.657145
 30
0.0
 10
146.013136
 20
14.678312
 30
0.0
 10
146.326402
 20
14.678312
 30
0.0
 10
146.326402
 20
15.182079
 30
0.0
 10
146.348627
 20
15.267804
 30
0.0
 10
146.415302
 20
15.296379
 30
0.0
 10
146.478802
 20
15.267804
 30
0.0
 10
146.499969
 20
15.182079
 30
0.0
  0
LWPOLYLINE
  5
11c
100
AcDbEntity
  8
texte_applati
 62
7
100
AcDbPolyline
 90
39
 70
1
 10
145.032656
 20
12.913012
 30
0.0
 10
145.032656
 20
13.192412
 30
0.0
 10
144.851152
 20
13.040541
 30
0.0
 10
144.662239
 20
12.932062
 30
0.0
 10
144.465918
 20
12.866975
 30
0.0
 10
144.262189
 20
12.845279
 30
0.0
 10
144.032531
 20
12.883379
 30
0.0
 10
143.851556
 20
12.997679
 30
0.0
 10
143.737256
 20
13.174420
 30
0.0
 10
143.699156
 20
13.399845
 30
0.0
 10
143.699156
 20
14.504745
 30
0.0
 10
143.470556
 20
14.504745
 30
0.0
 10
143.384831
 20
14.526970
 30
0.0
 10
143.356256
 20
14.593645
 30
0.0
 10
143.384831
 20
14.657145
 30
0.0
 10
143.470556
 20
14.678312
 30
0.0
 10
143.872723
 20
14.678312
 30
0.0
 10
143.872723
 20
13.399845
 30
0.0
 10
143.900239
 20
13.251679
 30
0.0
 10
143.982789
 20
13.128912
 30
0.0
 10
144.108731
 20
13.046362
 30
0.0
 10
144.257956
 20
13.018845
 30
0.0
 10
144.465125
 20
13.042658
 30
0.0
 10
144.663298
 20
13.114095
 30
0.0
 10
144.852475
 20
13.233158
 30
0.0
 10
145.032656
 20
13.399845
 30
0.0
 10
145.032656
 20
14.504745
 30
0.0
 10
144.719389
 20
14.504745
 30
0.0
 10
144.630489
 20
14.526970
 30
0.0
 10
144.600856
 20
14.593645
 30
0.0
 10
144.630489
 20
14.657145
 30
0.0
 10
144.719389
 20
14.678312
 30
0.0
 10
145.206223
 20
14.678312
 30
0.0
 10
145.206223
 20
13.086579
 30
0.0
 10
145.350156
 20
13.086579
 30
0.0
 10
145.435881
 20
13.065412
 30
0.0
 10
145.464456
 20
13.001912
 30
0.0
 10
145.435881
 20
12.935237
 30
0.0
 10
145.350156
 20
12.913012
 30
0.0
  0
LWPOLYLINE
  5
11d
100
AcDbEntity
  8
texte_applati
 62
7
100
AcDbPolyline
 90
17
 70
1
 10
141.905876
 20
14.737579
 30
0.0
 10
142.280526
 20
14.667729
 30
0.0
 10
142.591676
 20
14.458179
 30
0.0
 10
142.801226
 20
14.151262
 30
0.0
 10
142.871076
 20
13.780845
 30
0.0
 10
142.800168
 20
13.419954
 30
0.0
 10
142.587443
 20
13.116212
 30
0.0
 10
142.275235
 20
12.913012
 30
0.0
 10
141.905876
 20
12.845279
 30
0.0
 10
141.533343
 20
12.914070
 30
0.0
 10
141.220076
 20
13.120445
 30
0.0
 10
141.010526
 20
13.426304
 30
0.0
 10
140.940676
 20
13.793545
 30
0.0
 10
141.010526
 20
14.154437
 30
0.0
 10
141.220076
 20
14.458179
 30
0.0
 10
141.533343
 20
14.667729
 30
0.0
 10
141.905876
 20
14.737579
 30
0.0
  0
LWPOLYLINE
  5
11e
100
AcDbEntity
  8
texte_applati
 62
7
100
AcDbPolyline
 90
17
 70
1
 10
141.905876
 20
14.564012
 30
0.0
 10
141.600018
 20
14.507920
 30
0.0
 10
141.342843
 20
14.339645
 30
0.0
 10
141.171393
 20
14.090937
 30
0.0
 10
141.114243
 20
13.793545
 30
0.0
 10
141.171393
 20
13.495095
 30
0.0
 10
141.342843
 20
13.243212
 30
0.0
 10
141.600018
 20
13.074937
 30
0.0
 10
141.905876
 20
13.018845
 30
0.0
 10
142.208560
 20
13.074937
 30
0.0
 10
142.464676
 20
13.243212
 30
0.0
 10
142.639301
 20
13.489804
 30
0.0
 10
142.697510
 20
13.780845
 30
0.0
 10
142.640360
 20
14.087762
 30
0.0
 10
142.468910
 20
14.339645
 30
0.0
 10
142.213851
 20
14.507920
 30
0.0
 10
141.905876
 20
14.564012
 30
0.0
  0
LWPOLYLINE
  5
11f
100
AcDbEntity
  8
texte_applati
 62
7
100
AcDbPolyline
 90
37
 70
1
 10
121.052952
 20
14.678312
 30
0.0
 10
121.984286
 20
14.678312
 30
0.0
 10
122.070011
 20
14.657145
 30
0.0
 10
122.098586
 20
14.593645
 30
0.0
 10
122.070011
 20
14.526970
 30
0.0
 10
121.984286
 20
14.504745
 30
0.0
 10
121.052952
 20
14.504745
 30
0.0
 10
121.052952
 20
13.374445
 30
0.0
 10
121.084702
 20
13.229454
 30
0.0
 10
121.179952
 20
13.116212
 30
0.0
 10
121.330236
 20
13.043187
 30
0.0
 10
121.527086
 20
13.018845
 30
0.0
 10
121.903852
 20
13.065412
 30
0.0
 10
122.229819
 20
13.188179
 30
0.0
 10
122.297552
 20
13.213579
 30
0.0
 10
122.352586
 20
13.188179
 30
0.0
 10
122.377986
 20
13.128912
 30
0.0
 10
122.306019
 20
13.034720
 30
0.0
 10
122.090119
 20
12.938412
 30
0.0
 10
121.809661
 20
12.868562
 30
0.0
 10
121.535552
 20
12.845279
 30
0.0
 10
121.265677
 20
12.880204
 30
0.0
 10
121.057186
 20
12.984979
 30
0.0
 10
120.923836
 20
13.152195
 30
0.0
 10
120.879386
 20
13.365979
 30
0.0
 10
120.879386
 20
14.504745
 30
0.0
 10
120.566119
 20
14.504745
 30
0.0
 10
120.477219
 20
14.526970
 30
0.0
 10
120.447586
 20
14.593645
 30
0.0
 10
120.477219
 20
14.657145
 30
0.0
 10
120.566119
 20
14.678312
 30
0.0
 10
120.879386
 20
14.678312
 30
0.0
 10
120.879386
 20
15.182079
 30
0.0
 10
120.901611
 20
15.267804
 30
0.0
 10
120.968286
 20
15.296379
 30
0.0
 10
121.031786
 20
15.267804
 30
0.0
 10
121.052952
 20
15.182079
 30
0.0
  0
LWPOLYLINE
  5
120
100
AcDbEntity
  8
texte_applati
 62
7
100
AcDbPolyline
 90
39
 70
1
 10
119.585639
 20
12.913012
 30
0.0
 10
119.585639
 20
13.192412
 30
0.0
 10
119.404135
 20
13.040541
 30
0.0
 10
119.215223
 20
12.932062
 30
0.0
 10
119.018902
 20
12.866975
 30
0.0
 10
118.815173
 20
12.845279
 30
0.0
 10
118.585514
 20
12.883379
 30
0.0
 10
118.404539
 20
12.997679
 30
0.0
 10
118.290239
 20
13.174420
 30
0.0
 10
118.252139
 20
13.399845
 30
0.0
 10
118.252139
 20
14.504745
 30
0.0
 10
118.023539
 20
14.504745
 30
0.0
 10
117.937814
 20
14.526970
 30
0.0
 10
117.909239
 20
14.593645
 30
0.0
 10
117.937814
 20
14.657145
 30
0.0
 10
118.023539
 20
14.678312
 30
0.0
 10
118.425706
 20
14.678312
 30
0.0
 10
118.425706
 20
13.399845
 30
0.0
 10
118.453223
 20
13.251679
 30
0.0
 10
118.535773
 20
13.128912
 30
0.0
 10
118.661714
 20
13.046362
 30
0.0
 10
118.810939
 20
13.018845
 30
0.0
 10
119.018108
 20
13.042658
 30
0.0
 10
119.216281
 20
13.114095
 30
0.0
 10
119.405458
 20
13.233158
 30
0.0
 10
119.585639
 20
13.399845
 30
0.0
 10
119.585639
 20
14.504745
 30
0.0
 10
119.272373
 20
14.504745
 30
0.0
 10
119.183473
 20
14.526970
 30
0.0
 10
119.153839
 20
14.593645
 30
0.0
 10
119.183473
 20
14.657145
 30
0.0
 10
119.272373
 20
14.678312
 30
0.0
 10
119.759206
 20
14.678312
 30
0.0
 10
119.759206
 20
13.086579
 30
0.0
 10
119.903139
 20
13.086579
 30
0.0
 10
119.988864
 20
13.065412
 30
0.0
 10
120.017439
 20
13.001912
 30
0.0
 10
119.988864
 20
12.935237
 30
0.0
 10
119.903139
 20
12.913012
 30
0.0
  0
LWPOLYLINE
  5
121
100
AcDbEntity
  8
texte_applati
 62
7
100
AcDbPolyline
 90
17
 70
1
 10
116.458860
 20
14.737579
 30
0.0
 10
116.833510
 20
14.667729
 30
0.0
 10
117.144660
 20
14.458179
 30
0.0
 10
117.354210
 20
14.151262
 30
0.0
 10
117.424060
 20
13.780845
 30
0.0
 10
117.353151
 20
13.419954
 30
0.0
 10
117.140426
 20
13.116212
 30
0.0
 10
116.828218
 20
12.913012
 30
0.0
 10
116.458860
 20
12.845279
 30
0.0
 10
116.086326
 20
12.914070
 30
0.0
 10
115.773060
 20
13.120445
 30
0.0
 10
115.563510
 20
13.426304
 30
0.0
 10
115.493660
 20
13.793545
 30
0.0
 10
115.563510
 20
14.154437
 30
0.0
 10
115.773060
 20
14.458179
 30
0.0
 10
116.086326
 20
14.667729
 30
0.0
 10
116.458860
 20
14.737579
 30
0.0
  0
LWPOLYLINE
  5
122
100
AcDbEntity
  8
texte_applati
 62
7
100
AcDbPolyline
 90
17
 70
1
 10
116.458860
 20
14.564012
 30
0.0
 10
116.153001
 20
14.507920
 30
0.0
 10
115.895826
 20
14.339645
 30
0.0
 10
115.724376
 20
14.090937
 30
0.0
 10
115.667226
 20
13.793545
 30
0.0
 10
115.724376
 20
13.495095
 30
0.0
 10
115.895826
 20
13.243212
 30
0.0
 10
116.153001
 20
13.074937
 30
0.0
 10
116.458860
 20
13.018845
 30
0.0
 10
116.761543
 20
13.074937
 30
0.0
 10
117.017660
 20
13.243212
 30
0.0
 10
117.192285
 20
13.489804
 30
0.0
 10
117.250493
 20
13.780845
 30
0.0
 10
117.193343
 20
14.087762
 30
0.0
 10
117.021893
 20
14.339645
 30
0.0
 10
116.766835
 20
14.507920
 30
0.0
 10
116.458860
 20
14.564012
 30
0.0
  0
LWPOLYLINE
  5
123
100
AcDbEntity
  8
texte_applati
 62
7
100
AcDbPolyline
 90
28
 70
1
 10
112.313500
 20
13.755445
 30
0.0
 10
110.552434
 20
13.755445
 30
0.0
 10
110.645567
 20
13.453820
 30
0.0
 10
110.831834
 20
13.217812
 30
0.0
 10
111.092184
 20
13.068587
 30
0.0
 10
111.407567
 20
13.018845
 30
0.0
 10
111.813967
 20
13.082345
 30
0.0
 10
112.148400
 20
13.247445
 30
0.0
 10
112.216134
 20
13.277079
 30
0.0
 10
112.271167
 20
13.251679
 30
0.0
 10
112.296567
 20
13.192412
 30
0.0
 10
112.220367
 20
13.080229
 30
0.0
 10
111.991767
 20
12.963812
 30
0.0
 10
111.694375
 20
12.874912
 30
0.0
 10
111.403334
 20
12.845279
 30
0.0
 10
111.007517
 20
12.917245
 30
0.0
 10
110.675200
 20
13.133145
 30
0.0
 10
110.452950
 20
13.451704
 30
0.0
 10
110.378867
 20
13.831645
 30
0.0
 10
110.448717
 20
14.185129
 30
0.0
 10
110.658267
 20
14.475112
 30
0.0
 10
110.969417
 20
14.671962
 30
0.0
 10
111.344067
 20
14.737579
 30
0.0
 10
111.732475
 20
14.669845
 30
0.0
 10
112.042567
 20
14.466645
 30
0.0
 10
112.161100
 20
14.322183
 30
0.0
 10
112.245767
 20
14.155495
 30
0.0
 10
112.313500
 20
13.755445
 30
0.0
  0
LWPOLYLINE
  5
124
100
AcDbEntity
  8
texte_applati
 62
7
100
AcDbPolyline
 90
10
 70
1
 10
110.552434
 20
13.929012
 30
0.0
 10
112.135700
 20
13.929012
 30
0.0
 10
112.043625
 20
14.188304
 30
0.0
 10
111.869000
 20
14.390445
 30
0.0
 10
111.629817
 20
14.520620
 30
0.0
 10
111.344067
 20
14.564012
 30
0.0
 10
111.059375
 20
14.520620
 30
0.0
 10
110.823367
 20
14.390445
 30
0.0
 10
110.649800
 20
14.190420
 30
0.0
 10
110.552434
 20
13.929012
 30
0.0
  0
LWPOLYLINE
  5
125
100
AcDbEntity
  8
texte_applati
 62
7
100
AcDbPolyline
 90
52
 70
1
 10
108.924254
 20
14.564012
 30
0.0
 10
108.776087
 20
14.547079
 30
0.0
 10
108.644854
 20
14.500512
 30
0.0
 10
108.543254
 20
14.441245
 30
0.0
 10
108.450121
 20
14.365045
 30
0.0
 10
108.382387
 20
14.288845
 30
0.0
 10
108.323121
 20
14.212645
 30
0.0
 10
108.280787
 20
14.157612
 30
0.0
 10
108.280787
 20
13.086579
 30
0.0
 10
108.471287
 20
13.086579
 30
0.0
 10
108.557012
 20
13.065412
 30
0.0
 10
108.585587
 20
13.001912
 30
0.0
 10
108.557012
 20
12.935237
 30
0.0
 10
108.471287
 20
12.913012
 30
0.0
 10
107.916721
 20
12.913012
 30
0.0
 10
107.827821
 20
12.935237
 30
0.0
 10
107.798187
 20
13.001912
 30
0.0
 10
107.827821
 20
13.065412
 30
0.0
 10
107.916721
 20
13.086579
 30
0.0
 10
108.107221
 20
13.086579
 30
0.0
 10
108.107221
 20
14.504745
 30
0.0
 10
107.963287
 20
14.504745
 30
0.0
 10
107.877562
 20
14.526970
 30
0.0
 10
107.848987
 20
14.593645
 30
0.0
 10
107.877562
 20
14.657145
 30
0.0
 10
107.963287
 20
14.678312
 30
0.0
 10
108.280787
 20
14.678312
 30
0.0
 10
108.280787
 20
14.386212
 30
0.0
 10
108.602521
 20
14.661379
 30
0.0
 10
108.757037
 20
14.718529
 30
0.0
 10
108.941187
 20
14.737579
 30
0.0
 10
109.201537
 20
14.696304
 30
0.0
 10
109.415321
 20
14.572479
 30
0.0
 10
109.558196
 20
14.387270
 30
0.0
 10
109.605821
 20
14.161845
 30
0.0
 10
109.605821
 20
13.086579
 30
0.0
 10
109.749754
 20
13.086579
 30
0.0
 10
109.835479
 20
13.065412
 30
0.0
 10
109.864054
 20
13.001912
 30
0.0
 10
109.835479
 20
12.935237
 30
0.0
 10
109.749754
 20
12.913012
 30
0.0
 10
109.288321
 20
12.913012
 30
0.0
 10
109.202596
 20
12.935237
 30
0.0
 10
109.174021
 20
13.001912
 30
0.0
 10
109.202596
 20
13.065412
 30
0.0
 10
109.288321
 20
13.086579
 30
0.0
 10
109.432254
 20
13.086579
 30
0.0
 10
109.432254
 20
14.132212
 30
0.0
 10
109.397329
 20
14.299429
 30
0.0
 10
109.292554
 20
14.437012
 30
0.0
 10
109.132746
 20
14.532262
 30
0.0
 10
108.924254
 20
14.564012
 30
0.0
  0
LWPOLYLINE
  5
126
100
AcDbEntity
  8
texte_applati
 62
7
100
AcDbPolyline
 90
19
 70
1
 10
106.390141
 20
14.678312
 30
0.0
 10
106.390141
 20
13.086579
 30
0.0
 10
107.067474
 20
13.086579
 30
0.0
 10
107.156374
 20
13.065412
 30
0.0
 10
107.186008
 20
13.001912
 30
0.0
 10
107.156374
 20
12.935237
 30
0.0
 10
107.067474
 20
12.913012
 30
0.0
 10
105.539241
 20
12.913012
 30
0.0
 10
105.453516
 20
12.935237
 30
0.0
 10
105.424941
 20
13.001912
 30
0.0
 10
105.453516
 20
13.065412
 30
0.0
 10
105.539241
 20
13.086579
 30
0.0
 10
106.216574
 20
13.086579
 30
0.0
 10
106.216574
 20
14.504745
 30
0.0
 10
105.717041
 20
14.504745
 30
0.0
 10
105.631316
 20
14.526970
 30
0.0
 10
105.602741
 20
14.593645
 30
0.0
 10
105.631316
 20
14.657145
 30
0.0
 10
105.717041
 20
14.678312
 30
0.0
  0
LWPOLYLINE
  5
127
100
AcDbEntity
  8
texte_applati
 62
7
100
AcDbPolyline
 90
4
 70
1
 10
106.381674
 20
15.554612
 30
0.0
 10
106.381674
 20
15.114345
 30
0.0
 10
106.131908
 20
15.114345
 30
0.0
 10
106.131908
 20
15.554612
 30
0.0
  0
LWPOLYLINE
  5
128
100
AcDbEntity
  8
texte_applati
 62
7
100
AcDbPolyline
 90
19
 70
1
 10
103.851795
 20
15.469945
 30
0.0
 10
103.851795
 20
13.086579
 30
0.0
 10
104.529128
 20
13.086579
 30
0.0
 10
104.618028
 20
13.065412
 30
0.0
 10
104.647661
 20
13.001912
 30
0.0
 10
104.618028
 20
12.935237
 30
0.0
 10
104.529128
 20
12.913012
 30
0.0
 10
103.000895
 20
12.913012
 30
0.0
 10
102.915170
 20
12.935237
 30
0.0
 10
102.886595
 20
13.001912
 30
0.0
 10
102.915170
 20
13.065412
 30
0.0
 10
103.000895
 20
13.086579
 30
0.0
 10
103.678228
 20
13.086579
 30
0.0
 10
103.678228
 20
15.296379
 30
0.0
 10
103.182928
 20
15.296379
 30
0.0
 10
103.097203
 20
15.318604
 30
0.0
 10
103.068628
 20
15.385279
 30
0.0
 10
103.097203
 20
15.448779
 30
0.0
 10
103.182928
 20
15.469945
 30
0.0
  0
LWPOLYLINE
  5
129
100
AcDbEntity
  8
texte_applati
 62
7
100
AcDbPolyline
 90
37
 70
1
 10
89.749421
 20
14.678312
 30
0.0
 10
90.680754
 20
14.678312
 30
0.0
 10
90.766479
 20
14.657145
 30
0.0
 10
90.795054
 20
14.593645
 30
0.0
 10
90.766479
 20
14.526970
 30
0.0
 10
90.680754
 20
14.504745
 30
0.0
 10
89.749421
 20
14.504745
 30
0.0
 10
89.749421
 20
13.374445
 30
0.0
 10
89.781171
 20
13.229454
 30
0.0
 10
89.876421
 20
13.116212
 30
0.0
 10
90.026704
 20
13.043187
 30
0.0
 10
90.223554
 20
13.018845
 30
0.0
 10
90.600321
 20
13.065412
 30
0.0
 10
90.926288
 20
13.188179
 30
0.0
 10
90.994021
 20
13.213579
 30
0.0
 10
91.049054
 20
13.188179
 30
0.0
 10
91.074454
 20
13.128912
 30
0.0
 10
91.002488
 20
13.034720
 30
0.0
 10
90.786588
 20
12.938412
 30
0.0
 10
90.506129
 20
12.868562
 30
0.0
 10
90.232021
 20
12.845279
 30
0.0
 10
89.962146
 20
12.880204
 30
0.0
 10
89.753654
 20
12.984979
 30
0.0
 10
89.620304
 20
13.152195
 30
0.0
 10
89.575854
 20
13.365979
 30
0.0
 10
89.575854
 20
14.504745
 30
0.0
 10
89.262588
 20
14.504745
 30
0.0
 10
89.173688
 20
14.526970
 30
0.0
 10
89.144054
 20
14.593645
 30
0.0
 10
89.173688
 20
14.657145
 30
0.0
 10
89.262588
 20
14.678312
 30
0.0
 10
89.575854
 20
14.678312
 30
0.0
 10
89.575854
 20
15.182079
 30
0.0
 10
89.598079
 20
15.267804
 30
0.0
 10
89.664754
 20
15.296379
 30
0.0
 10
89.728254
 20
15.267804
 30
0.0
 10
89.749421
 20
15.182079
 30
0.0
  0
LWPOLYLINE
  5
12a
100
AcDbEntity
  8
texte_applati
 62
7
100
AcDbPolyline
 90
39
 70
1
 10
88.282108
 20
12.913012
 30
0.0
 10
88.282108
 20
13.192412
 30
0.0
 10
88.100604
 20
13.040541
 30
0.0
 10
87.911691
 20
12.932062
 30
0.0
 10
87.715370
 20
12.866975
 30
0.0
 10
87.511641
 20
12.845279
 30
0.0
 10
87.281983
 20
12.883379
 30
0.0
 10
87.101008
 20
12.997679
 30
0.0
 10
86.986708
 20
13.174420
 30
0.0
 10
86.948608
 20
13.399845
 30
0.0
 10
86.948608
 20
14.504745
 30
0.0
 10
86.720008
 20
14.504745
 30
0.0
 10
86.634283
 20
14.526970
 30
0.0
 10
86.605708
 20
14.593645
 30
0.0
 10
86.634283
 20
14.657145
 30
0.0
 10
86.720008
 20
14.678312
 30
0.0
 10
87.122175
 20
14.678312
 30
0.0
 10
87.122175
 20
13.399845
 30
0.0
 10
87.149691
 20
13.251679
 30
0.0
 10
87.232241
 20
13.128912
 30
0.0
 10
87.358183
 20
13.046362
 30
0.0
 10
87.507408
 20
13.018845
 30
0.0
 10
87.714577
 20
13.042658
 30
0.0
 10
87.912750
 20
13.114095
 30
0.0
 10
88.101927
 20
13.233158
 30
0.0
 10
88.282108
 20
13.399845
 30
0.0
 10
88.282108
 20
14.504745
 30
0.0
 10
87.968841
 20
14.504745
 30
0.0
 10
87.879941
 20
14.526970
 30
0.0
 10
87.850308
 20
14.593645
 30
0.0
 10
87.879941
 20
14.657145
 30
0.0
 10
87.968841
 20
14.678312
 30
0.0
 10
88.455675
 20
14.678312
 30
0.0
 10
88.455675
 20
13.086579
 30
0.0
 10
88.599608
 20
13.086579
 30
0.0
 10
88.685333
 20
13.065412
 30
0.0
 10
88.713908
 20
13.001912
 30
0.0
 10
88.685333
 20
12.935237
 30
0.0
 10
88.599608
 20
12.913012
 30
0.0
  0
LWPOLYLINE
  5
12b
100
AcDbEntity
  8
texte_applati
 62
7
100
AcDbPolyline
 90
17
 70
1
 10
85.155328
 20
14.737579
 30
0.0
 10
85.529978
 20
14.667729
 30
0.0
 10
85.841128
 20
14.458179
 30
0.0
 10
86.050678
 20
14.151262
 30
0.0
 10
86.120528
 20
13.780845
 30
0.0
 10
86.049620
 20
13.419954
 30
0.0
 10
85.836895
 20
13.116212
 30
0.0
 10
85.524687
 20
12.913012
 30
0.0
 10
85.155328
 20
12.845279
 30
0.0
 10
84.782795
 20
12.914070
 30
0.0
 10
84.469528
 20
13.120445
 30
0.0
 10
84.259978
 20
13.426304
 30
0.0
 10
84.190128
 20
13.793545
 30
0.0
 10
84.259978
 20
14.154437
 30
0.0
 10
84.469528
 20
14.458179
 30
0.0
 10
84.782795
 20
14.667729
 30
0.0
 10
85.155328
 20
14.737579
 30
0.0
  0
LWPOLYLINE
  5
12c
100
AcDbEntity
  8
texte_applati
 62
7
100
AcDbPolyline
 90
17
 70
1
 10
85.155328
 20
14.564012
 30
0.0
 10
84.849470
 20
14.507920
 30
0.0
 10
84.592295
 20
14.339645
 30
0.0
 10
84.420845
 20
14.090937
 30
0.0
 10
84.363695
 20
13.793545
 30
0.0
 10
84.420845
 20
13.495095
 30
0.0
 10
84.592295
 20
13.243212
 30
0.0
 10
84.849470
 20
13.074937
 30
0.0
 10
85.155328
 20
13.018845
 30
0.0
 10
85.458012
 20
13.074937
 30
0.0
 10
85.714128
 20
13.243212
 30
0.0
 10
85.888753
 20
13.489804
 30
0.0
 10
85.946962
 20
13.780845
 30
0.0
 10
85.889812
 20
14.087762
 30
0.0
 10
85.718362
 20
14.339645
 30
0.0
 10
85.463303
 20
14.507920
 30
0.0
 10
85.155328
 20
14.564012
 30
0.0
  0
LWPOLYLINE
  5
12d
100
AcDbEntity
  8
texte_applati
 62
1
100
AcDbPolyline
 90
4
 70
1
 10
0.100000
 20
13.225697
 30
0.0
 10
13.225739
 20
13.225697
 30
0.0
 10
13.225739
 20
0.100028
 30
0.0
 10
0.100000
 20
0.100028
 30
0.0
  0
ENDSEC
  0
SECTION
  2
OBJECTS
  0
DICTIONARY
  5
C
330
0
100
AcDbDictionary
  3
ACAD_GROUP
350
D
  3
ACAD_MLINESTYLE
350
17
  0
DICTIONARY
  5
D
330
C
100
AcDbDictionary
  0
DICTIONARY
  5
1A
330
C
100
AcDbDictionary
  0
DICTIONARY
  5
17
330
C
100
AcDbDictionary
  3
STANDARD
350
18
  0
DICTIONARY
  5
19
330
C
100
AcDbDictionary
  0
ENDSEC
  0
EOF
