  0
SECTION
  2
HEADER
  9
$ACADVER
  1
AC1014
  9
$HANDSEED
  5
FFFF
  9
$MEASUREMENT
 70
     1
  0
ENDSEC
  0
SECTION
  2
TABLES
  0
TABLE
  2
VPORT
  5
8
330
0
100
AcDbSymbolTable
 70
     4
  0
VPORT
  5
2E
330
8
100
AcDbSymbolTableRecord
100
AcDbViewportTableRecord
  2
*ACTIVE
 70
     0
 10
0.0
 20
0.0
 11
1.0
 21
1.0
 12
210.0
 22
148.5
 13
0.0
 23
0.0
 14
10.0
 24
10.0
 15
10.0
 25
10.0
 16
0.0
 26
0.0
 36
1.0
 17
0.0
 27
0.0
 37
0.0
 40
341.0
 41
1.24
 42
50.0
 43
0.0
 44
0.0
 50
0.0
 51
0.0
 71
     0
 72
   100
 73
     1
 74
     3
 75
     0
 76
     0
 77
     0
 78
     0
  0
ENDTAB
  0
TABLE
  2
LTYPE
  5
5
330
0
100
AcDbSymbolTable
 70
     1
  0
LTYPE
  5
14
330
5
100
AcDbSymbolTableRecord
100
AcDbLinetypeTableRecord
  2
BYBLOCK
 70
     0
  3

 72
    65
 73
     0
 40
0.0
  0
LTYPE
  5
15
330
5
100
AcDbSymbolTableRecord
100
AcDbLinetypeTableRecord
  2
BYLAYER
 70
     0
  3

 72
    65
 73
     0
 40
0.0
  0
LTYPE
  5
16
330
5
100
AcDbSymbolTableRecord
100
AcDbLinetypeTableRecord
  2
CONTINUOUS
 70
     0
  3
Solid line
 72
    65
 73
     0
 40
0.0
  0
ENDTAB
  0
TABLE
  2
LAYER
  5
2
100
AcDbSymbolTable
 70
1
  0
LAYER
  5
50
100
AcDbSymbolTableRecord
100
AcDbLayerTableRecord
  2
0
 70
0
  6
CONTINUOUS
  0
ENDTAB
  0
TABLE
  2
STYLE
  5
3
330
0
100
AcDbSymbolTable
 70
     1
  0
STYLE
  5
11
330
3
100
AcDbSymbolTableRecord
100
AcDbTextStyleTableRecord
  2
STANDARD
 70
     0
 40
0.0
 41
1.0
 50
0.0
 71
     0
 42
2.5
  3
txt
  4

  0
ENDTAB
  0
TABLE
  2
VIEW
  5
6
330
0
100
AcDbSymbolTable
 70
     0
  0
ENDTAB
  0
TABLE
  2
UCS
  5
7
330
0
100
AcDbSymbolTable
 70
     0
  0
ENDTAB
  0
TABLE
  2
APPID
  5
9
330
0
100
AcDbSymbolTable
 70
     2
  0
APPID
  5
12
330
9
100
AcDbSymbolTableRecord
100
AcDbRegAppTableRecord
  2
ACAD
 70
     0
  0
ENDTAB
  0
TABLE
  2
DIMSTYLE
  5
A
330
0
100
AcDbSymbolTable
 70
     1
  0
DIMSTYLE
105
27
330
A
100
AcDbSymbolTableRecord
100
AcDbDimStyleTableRecord
  2
ISO-25
 70
     0
  3

  4

  5

  6

  7

 40
1.0
 41
2.5
 42
0.625
 43
3.75
 44
1.25
 45
0.0
 46
0.0
 47
0.0
 48
0.0
140
2.5
141
2.5
142
0.0
143
0.03937007874016
144
1.0
145
0.0
146
1.0
147
0.625
 71
     0
 72
     0
 73
     0
 74
     0
 75
     0
 76
     0
 77
     1
 78
     8
170
     0
171
     3
172
     1
173
     0
174
     0
175
     0
176
     0
177
     0
178
     0
270
     2
271
     2
272
     2
273
     2
274
     3
340
11
275
     0
280
     0
281
     0
282
     0
283
     0
284
     8
285
     0
286
     0
287
     3
288
     0
  0
ENDTAB
  0
TABLE
  2
BLOCK_RECORD
  5
1
330
0
100
AcDbSymbolTable
 70
     1
  0
BLOCK_RECORD
  5
1F
330
1
100
AcDbSymbolTableRecord
100
AcDbBlockTableRecord
  2
*MODEL_SPACE
  0
BLOCK_RECORD
  5
1B
330
1
100
AcDbSymbolTableRecord
100
AcDbBlockTableRecord
  2
*PAPER_SPACE
  0
ENDTAB
  0
ENDSEC
  0
SECTION
  2
BLOCKS
  0
BLOCK
  5
20
330
1F
100
AcDbEntity
  8
0
100
AcDbBlockBegin
  2
*MODEL_SPACE
 70
     0
 10
0.0
 20
0.0
 30
0.0
  3
*MODEL_SPACE
  1

  0
ENDBLK
  5
21
330
1F
100
AcDbEntity
  8
0
100
AcDbBlockEnd
  0
BLOCK
  5
1C
330
1B
100
AcDbEntity
 67
     1
  8
0
100
AcDbBlockBegin
  2
*PAPER_SPACE
  1

  0
ENDBLK
  5
1D
330
1B
100
AcDbEntity
 67
     1
  8
0
100
AcDbBlockEnd
  0
ENDSEC
  0
SECTION
  2
ENTITIES
  0
LWPOLYLINE
  5
100
100
AcDbEntity
  8
0
 62
7
100
AcDbPolyline
 90
2
 70
0
 10
0.132292
 20
0.132288
 30
0.0
 10
480.132284
 20
0.132288
 30
0.0
  0
LWPOLYLINE
  5
101
100
AcDbEntity
  8
0
 62
7
100
AcDbPolyline
 90
2
 70
0
 10
245.132291
 20
16.632313
 30
0.0
 10
232.132291
 20
16.632313
 30
0.0
  0
LWPOLYLINE
  5
102
100
AcDbEntity
  8
0
 62
7
100
AcDbPolyline
 90
3
 70
0
 10
245.132291
 20
16.632313
 30
0.0
 10
245.132291
 20
27.632312
 30
0.0
 10
232.132291
 20
27.632312
 30
0.0
  0
LWPOLYLINE
  5
103
100
AcDbEntity
  8
0
 62
7
100
AcDbPolyline
 90
2
 70
0
 10
232.132291
 20
16.632313
 30
0.0
 10
232.132291
 20
27.632312
 30
0.0
  0
LWPOLYLINE
  5
104
100
AcDbEntity
  8
0
 62
7
100
AcDbPolyline
 90
2
 70
0
 10
397.132281
 20
17.382301
 30
0.0
 10
375.132283
 20
17.382301
 30
0.0
  0
LWPOLYLINE
  5
105
100
AcDbEntity
  8
0
 62
7
100
AcDbPolyline
 90
3
 70
0
 10
397.132281
 20
17.382301
 30
0.0
 10
397.132281
 20
26.882298
 30
0.0
 10
375.132283
 20
26.882298
 30
0.0
  0
LWPOLYLINE
  5
106
100
AcDbEntity
  8
0
 62
7
100
AcDbPolyline
 90
2
 70
0
 10
375.132282
 20
17.382301
 30
0.0
 10
375.132282
 20
26.882298
 30
0.0
  0
LWPOLYLINE
  5
107
100
AcDbEntity
  8
0
 62
7
100
AcDbPolyline
 90
2
 70
0
 10
360.132286
 20
14.132291
 30
0.0
 10
332.132279
 20
14.132291
 30
0.0
  0
LWPOLYLINE
  5
108
100
AcDbEntity
  8
0
 62
7
100
AcDbPolyline
 90
3
 70
0
 10
360.132286
 20
14.132291
 30
0.0
 10
360.132286
 20
30.132307
 30
0.0
 10
332.132279
 20
30.132307
 30
0.0
  0
SPLINE
  5
109
100
AcDbEntity
  8
0
 62
7
100
AcDbSpline
 70
8
 71
3
 72
8
 73
4
 74
0
 40
0
 40
0
 40
0
 40
0
 40
1
 40
1
 40
1
 40
1
 10
198.132293
 20
22.132313
 30
0.0
 10
198.132293
 20
24.811805
 30
0.0
 10
196.702800
 20
27.287758
 30
0.0
 10
194.382292
 20
28.627504
 30
0.0
  0
SPLINE
  5
10a
100
AcDbEntity
  8
0
 62
7
100
AcDbSpline
 70
8
 71
3
 72
8
 73
4
 74
0
 40
0
 40
0
 40
0
 40
0
 40
1
 40
1
 40
1
 40
1
 10
194.382292
 20
28.627504
 30
0.0
 10
192.061784
 20
29.967250
 30
0.0
 10
189.202800
 20
29.967250
 30
0.0
 10
186.882291
 20
28.627504
 30
0.0
  0
SPLINE
  5
10b
100
AcDbEntity
  8
0
 62
7
100
AcDbSpline
 70
8
 71
3
 72
8
 73
4
 74
0
 40
0
 40
0
 40
0
 40
0
 40
1
 40
1
 40
1
 40
1
 10
186.882291
 20
28.627504
 30
0.0
 10
184.561783
 20
27.287758
 30
0.0
 10
183.132291
 20
24.811805
 30
0.0
 10
183.132291
 20
22.132313
 30
0.0
  0
SPLINE
  5
10c
100
AcDbEntity
  8
0
 62
7
100
AcDbSpline
 70
8
 71
3
 72
8
 73
4
 74
0
 40
0
 40
0
 40
0
 40
0
 40
1
 40
1
 40
1
 40
1
 10
183.132291
 20
22.132313
 30
0.0
 10
183.132291
 20
19.452820
 30
0.0
 10
184.561783
 20
16.976867
 30
0.0
 10
186.882291
 20
15.637121
 30
0.0
  0
SPLINE
  5
10d
100
AcDbEntity
  8
0
 62
7
100
AcDbSpline
 70
8
 71
3
 72
8
 73
4
 74
0
 40
0
 40
0
 40
0
 40
0
 40
1
 40
1
 40
1
 40
1
 10
186.882291
 20
15.637121
 30
0.0
 10
189.202800
 20
14.297375
 30
0.0
 10
192.061784
 20
14.297375
 30
0.0
 10
194.382292
 20
15.637121
 30
0.0
  0
SPLINE
  5
10e
100
AcDbEntity
  8
0
 62
7
100
AcDbSpline
 70
8
 71
3
 72
8
 73
4
 74
0
 40
0
 40
0
 40
0
 40
0
 40
1
 40
1
 40
1
 40
1
 10
194.382292
 20
15.637121
 30
0.0
 10
196.702800
 20
16.976867
 30
0.0
 10
198.132293
 20
19.452820
 30
0.0
 10
198.132293
 20
22.132313
 30
0.0
  0
LWPOLYLINE
  5
10f
100
AcDbEntity
  8
0
 62
7
100
AcDbPolyline
 90
2
 70
0
 10
332.132279
 20
14.132291
 30
0.0
 10
332.132279
 20
30.132307
 30
0.0
  0
SPLINE
  5
110
100
AcDbEntity
  8
0
 62
7
100
AcDbSpline
 70
8
 71
3
 72
8
 73
4
 74
0
 40
0
 40
0
 40
0
 40
0
 40
1
 40
1
 40
1
 40
1
 10
166.132290
 20
22.132313
 30
0.0
 10
166.133297
 20
24.812475
 30
0.0
 10
164.704026
 20
27.289479
 30
0.0
 10
162.383104
 20
28.629851
 30
0.0
  0
SPLINE
  5
111
100
AcDbEntity
  8
0
 62
7
100
AcDbSpline
 70
8
 71
3
 72
8
 73
4
 74
0
 40
0
 40
0
 40
0
 40
0
 40
1
 40
1
 40
1
 40
1
 10
162.383104
 20
28.629851
 30
0.0
 10
160.062183
 20
29.970223
 30
0.0
 10
157.202399
 20
29.970223
 30
0.0
 10
154.881478
 20
28.629851
 30
0.0
  0
SPLINE
  5
112
100
AcDbEntity
  8
0
 62
7
100
AcDbSpline
 70
8
 71
3
 72
8
 73
4
 74
0
 40
0
 40
0
 40
0
 40
0
 40
1
 40
1
 40
1
 40
1
 10
154.881478
 20
28.629851
 30
0.0
 10
152.560556
 20
27.289479
 30
0.0
 10
151.131284
 20
24.812475
 30
0.0
 10
151.132291
 20
22.132313
 30
0.0
  0
SPLINE
  5
113
100
AcDbEntity
  8
0
 62
7
100
AcDbSpline
 70
8
 71
3
 72
8
 73
4
 74
0
 40
0
 40
0
 40
0
 40
0
 40
1
 40
1
 40
1
 40
1
 10
151.132291
 20
22.132313
 30
0.0
 10
151.131284
 20
19.452150
 30
0.0
 10
152.560556
 20
16.975146
 30
0.0
 10
154.881478
 20
15.634774
 30
0.0
  0
SPLINE
  5
114
100
AcDbEntity
  8
0
 62
7
100
AcDbSpline
 70
8
 71
3
 72
8
 73
4
 74
0
 40
0
 40
0
 40
0
 40
0
 40
1
 40
1
 40
1
 40
1
 10
154.881478
 20
15.634774
 30
0.0
 10
157.202399
 20
14.294402
 30
0.0
 10
160.062183
 20
14.294402
 30
0.0
 10
162.383104
 20
15.634774
 30
0.0
  0
SPLINE
  5
115
100
AcDbEntity
  8
0
 62
7
100
AcDbSpline
 70
8
 71
3
 72
8
 73
4
 74
0
 40
0
 40
0
 40
0
 40
0
 40
1
 40
1
 40
1
 40
1
 10
162.383104
 20
15.634774
 30
0.0
 10
164.704026
 20
16.975146
 30
0.0
 10
166.133297
 20
19.452150
 30
0.0
 10
166.132290
 20
22.132313
 30
0.0
  0
LWPOLYLINE
  5
116
100
AcDbEntity
  8
0
 62
7
100
AcDbPolyline
 90
1
 70
1
 10
198.132293
 20
22.132313
 30
0.0
  0
SPLINE
  5
117
100
AcDbEntity
  8
0
 62
7
100
AcDbSpline
 70
8
 71
3
 72
8
 73
4
 74
0
 40
0
 40
0
 40
0
 40
0
 40
1
 40
1
 40
1
 40
1
 10
298.132288
 20
22.132313
 30
0.0
 10
298.134992
 20
23.741806
 30
0.0
 10
297.277890
 20
25.230198
 30
0.0
 10
295.884477
 20
26.035726
 30
0.0
  0
SPLINE
  5
118
100
AcDbEntity
  8
0
 62
7
100
AcDbSpline
 70
8
 71
3
 72
8
 73
4
 74
0
 40
0
 40
0
 40
0
 40
0
 40
1
 40
1
 40
1
 40
1
 10
295.884477
 20
26.035726
 30
0.0
 10
294.491063
 20
26.841254
 30
0.0
 10
292.773526
 20
26.841254
 30
0.0
 10
291.380113
 20
26.035726
 30
0.0
  0
SPLINE
  5
119
100
AcDbEntity
  8
0
 62
7
100
AcDbSpline
 70
8
 71
3
 72
8
 73
4
 74
0
 40
0
 40
0
 40
0
 40
0
 40
1
 40
1
 40
1
 40
1
 10
291.380113
 20
26.035726
 30
0.0
 10
289.986699
 20
25.230198
 30
0.0
 10
289.129597
 20
23.741806
 30
0.0
 10
289.132301
 20
22.132313
 30
0.0
  0
SPLINE
  5
11a
100
AcDbEntity
  8
0
 62
7
100
AcDbSpline
 70
8
 71
3
 72
8
 73
4
 74
0
 40
0
 40
0
 40
0
 40
0
 40
1
 40
1
 40
1
 40
1
 10
289.132301
 20
22.132313
 30
0.0
 10
289.129597
 20
20.522819
 30
0.0
 10
289.986699
 20
19.034427
 30
0.0
 10
291.380113
 20
18.228899
 30
0.0
  0
SPLINE
  5
11b
100
AcDbEntity
  8
0
 62
7
100
AcDbSpline
 70
8
 71
3
 72
8
 73
4
 74
0
 40
0
 40
0
 40
0
 40
0
 40
1
 40
1
 40
1
 40
1
 10
291.380113
 20
18.228899
 30
0.0
 10
292.773526
 20
17.423371
 30
0.0
 10
294.491063
 20
17.423371
 30
0.0
 10
295.884477
 20
18.228899
 30
0.0
  0
SPLINE
  5
11c
100
AcDbEntity
  8
0
 62
7
100
AcDbSpline
 70
8
 71
3
 72
8
 73
4
 74
0
 40
0
 40
0
 40
0
 40
0
 40
1
 40
1
 40
1
 40
1
 10
295.884477
 20
18.228899
 30
0.0
 10
297.277890
 20
19.034427
 30
0.0
 10
298.134992
 20
20.522819
 30
0.0
 10
298.132288
 20
22.132313
 30
0.0
  0
LWPOLYLINE
  5
11d
100
AcDbEntity
  8
0
 62
7
100
AcDbPolyline
 90
1
 70
1
 10
166.132290
 20
22.132313
 30
0.0
  0
SPLINE
  5
11e
100
AcDbEntity
  8
0
 62
7
100
AcDbSpline
 70
8
 71
3
 72
8
 73
4
 74
0
 40
0
 40
0
 40
0
 40
0
 40
1
 40
1
 40
1
 40
1
 10
273.132285
 20
22.132313
 30
0.0
 10
273.133940
 20
23.741109
 30
0.0
 10
272.276608
 20
25.228408
 30
0.0
 10
270.883624
 20
26.033284
 30
0.0
  0
SPLINE
  5
11f
100
AcDbEntity
  8
0
 62
7
100
AcDbSpline
 70
8
 71
3
 72
8
 73
4
 74
0
 40
0
 40
0
 40
0
 40
0
 40
1
 40
1
 40
1
 40
1
 10
270.883624
 20
26.033284
 30
0.0
 10
269.490640
 20
26.838161
 30
0.0
 10
267.773935
 20
26.838161
 30
0.0
 10
266.380952
 20
26.033284
 30
0.0
  0
SPLINE
  5
120
100
AcDbEntity
  8
0
 62
7
100
AcDbSpline
 70
8
 71
3
 72
8
 73
4
 74
0
 40
0
 40
0
 40
0
 40
0
 40
1
 40
1
 40
1
 40
1
 10
266.380952
 20
26.033284
 30
0.0
 10
264.987968
 20
25.228408
 30
0.0
 10
264.130635
 20
23.741109
 30
0.0
 10
264.132290
 20
22.132313
 30
0.0
  0
SPLINE
  5
121
100
AcDbEntity
  8
0
 62
7
100
AcDbSpline
 70
8
 71
3
 72
8
 73
4
 74
0
 40
0
 40
0
 40
0
 40
0
 40
1
 40
1
 40
1
 40
1
 10
264.132290
 20
22.132313
 30
0.0
 10
264.130635
 20
20.523516
 30
0.0
 10
264.987968
 20
19.036217
 30
0.0
 10
266.380952
 20
18.231341
 30
0.0
  0
SPLINE
  5
122
100
AcDbEntity
  8
0
 62
7
100
AcDbSpline
 70
8
 71
3
 72
8
 73
4
 74
0
 40
0
 40
0
 40
0
 40
0
 40
1
 40
1
 40
1
 40
1
 10
266.380952
 20
18.231341
 30
0.0
 10
267.773935
 20
17.426464
 30
0.0
 10
269.490640
 20
17.426464
 30
0.0
 10
270.883624
 20
18.231341
 30
0.0
  0
SPLINE
  5
123
100
AcDbEntity
  8
0
 62
7
100
AcDbSpline
 70
8
 71
3
 72
8
 73
4
 74
0
 40
0
 40
0
 40
0
 40
0
 40
1
 40
1
 40
1
 40
1
 10
270.883624
 20
18.231341
 30
0.0
 10
272.276608
 20
19.036217
 30
0.0
 10
273.133940
 20
20.523516
 30
0.0
 10
273.132285
 20
22.132313
 30
0.0
  0
LWPOLYLINE
  5
124
100
AcDbEntity
  8
0
 62
7
100
AcDbPolyline
 90
1
 70
1
 10
298.132288
 20
22.132313
 30
0.0
  0
SPLINE
  5
125
100
AcDbEntity
  8
0
 62
7
100
AcDbSpline
 70
8
 71
3
 72
8
 73
4
 74
0
 40
0
 40
0
 40
0
 40
0
 40
1
 40
1
 40
1
 40
1
 10
117.132291
 20
22.132313
 30
0.0
 10
117.133394
 20
23.740742
 30
0.0
 10
116.275940
 20
25.227465
 30
0.0
 10
114.883182
 20
26.031999
 30
0.0
  0
SPLINE
  5
126
100
AcDbEntity
  8
0
 62
7
100
AcDbSpline
 70
8
 71
3
 72
8
 73
4
 74
0
 40
0
 40
0
 40
0
 40
0
 40
1
 40
1
 40
1
 40
1
 10
114.883182
 20
26.031999
 30
0.0
 10
113.490425
 20
26.836532
 30
0.0
 10
111.774158
 20
26.836532
 30
0.0
 10
110.381401
 20
26.031999
 30
0.0
  0
SPLINE
  5
127
100
AcDbEntity
  8
0
 62
7
100
AcDbSpline
 70
8
 71
3
 72
8
 73
4
 74
0
 40
0
 40
0
 40
0
 40
0
 40
1
 40
1
 40
1
 40
1
 10
110.381401
 20
26.031999
 30
0.0
 10
108.988643
 20
25.227465
 30
0.0
 10
108.131190
 20
23.740742
 30
0.0
 10
108.132293
 20
22.132313
 30
0.0
  0
SPLINE
  5
128
100
AcDbEntity
  8
0
 62
7
100
AcDbSpline
 70
8
 71
3
 72
8
 73
4
 74
0
 40
0
 40
0
 40
0
 40
0
 40
1
 40
1
 40
1
 40
1
 10
108.132293
 20
22.132313
 30
0.0
 10
108.131190
 20
20.523883
 30
0.0
 10
108.988643
 20
19.037160
 30
0.0
 10
110.381401
 20
18.232626
 30
0.0
  0
SPLINE
  5
129
100
AcDbEntity
  8
0
 62
7
100
AcDbSpline
 70
8
 71
3
 72
8
 73
4
 74
0
 40
0
 40
0
 40
0
 40
0
 40
1
 40
1
 40
1
 40
1
 10
110.381401
 20
18.232626
 30
0.0
 10
111.774158
 20
17.428093
 30
0.0
 10
113.490425
 20
17.428093
 30
0.0
 10
114.883182
 20
18.232626
 30
0.0
  0
SPLINE
  5
12a
100
AcDbEntity
  8
0
 62
7
100
AcDbSpline
 70
8
 71
3
 72
8
 73
4
 74
0
 40
0
 40
0
 40
0
 40
0
 40
1
 40
1
 40
1
 40
1
 10
114.883182
 20
18.232626
 30
0.0
 10
116.275940
 20
19.037160
 30
0.0
 10
117.133394
 20
20.523883
 30
0.0
 10
117.132291
 20
22.132313
 30
0.0
  0
LWPOLYLINE
  5
12b
100
AcDbEntity
  8
0
 62
7
100
AcDbPolyline
 90
1
 70
1
 10
273.132285
 20
22.132313
 30
0.0
  0
SPLINE
  5
12c
100
AcDbEntity
  8
0
 62
7
100
AcDbSpline
 70
8
 71
3
 72
8
 73
4
 74
0
 40
0
 40
0
 40
0
 40
0
 40
1
 40
1
 40
1
 40
1
 10
92.132290
 20
22.132313
 30
0.0
 10
92.133393
 20
23.740742
 30
0.0
 10
91.275940
 20
25.227465
 30
0.0
 10
89.883182
 20
26.031999
 30
0.0
  0
SPLINE
  5
12d
100
AcDbEntity
  8
0
 62
7
100
AcDbSpline
 70
8
 71
3
 72
8
 73
4
 74
0
 40
0
 40
0
 40
0
 40
0
 40
1
 40
1
 40
1
 40
1
 10
89.883182
 20
26.031999
 30
0.0
 10
88.490425
 20
26.836532
 30
0.0
 10
86.774158
 20
26.836532
 30
0.0
 10
85.381400
 20
26.031999
 30
0.0
  0
SPLINE
  5
12e
100
AcDbEntity
  8
0
 62
7
100
AcDbSpline
 70
8
 71
3
 72
8
 73
4
 74
0
 40
0
 40
0
 40
0
 40
0
 40
1
 40
1
 40
1
 40
1
 10
85.381400
 20
26.031999
 30
0.0
 10
83.988643
 20
25.227465
 30
0.0
 10
83.131189
 20
23.740742
 30
0.0
 10
83.132292
 20
22.132313
 30
0.0
  0
SPLINE
  5
12f
100
AcDbEntity
  8
0
 62
7
100
AcDbSpline
 70
8
 71
3
 72
8
 73
4
 74
0
 40
0
 40
0
 40
0
 40
0
 40
1
 40
1
 40
1
 40
1
 10
83.132292
 20
22.132313
 30
0.0
 10
83.131189
 20
20.523883
 30
0.0
 10
83.988643
 20
19.037160
 30
0.0
 10
85.381400
 20
18.232626
 30
0.0
  0
SPLINE
  5
130
100
AcDbEntity
  8
0
 62
7
100
AcDbSpline
 70
8
 71
3
 72
8
 73
4
 74
0
 40
0
 40
0
 40
0
 40
0
 40
1
 40
1
 40
1
 40
1
 10
85.381400
 20
18.232626
 30
0.0
 10
86.774158
 20
17.428093
 30
0.0
 10
88.490425
 20
17.428093
 30
0.0
 10
89.883182
 20
18.232626
 30
0.0
  0
SPLINE
  5
131
100
AcDbEntity
  8
0
 62
7
100
AcDbSpline
 70
8
 71
3
 72
8
 73
4
 74
0
 40
0
 40
0
 40
0
 40
0
 40
1
 40
1
 40
1
 40
1
 10
89.883182
 20
18.232626
 30
0.0
 10
91.275940
 20
19.037160
 30
0.0
 10
92.133393
 20
20.523883
 30
0.0
 10
92.132290
 20
22.132313
 30
0.0
  0
LWPOLYLINE
  5
132
100
AcDbEntity
  8
0
 62
7
100
AcDbPolyline
 90
1
 70
1
 10
117.132291
 20
22.132313
 30
0.0
  0
SPLINE
  5
133
100
AcDbEntity
  8
0
 62
7
100
AcDbSpline
 70
8
 71
3
 72
8
 73
4
 74
0
 40
0
 40
0
 40
0
 40
0
 40
1
 40
1
 40
1
 40
1
 10
238.532292
 20
163.132263
 30
0.0
 10
238.532292
 20
162.560638
 30
0.0
 10
238.837251
 20
162.032435
 30
0.0
 10
239.332293
 20
161.746623
 30
0.0
  0
SPLINE
  5
134
100
AcDbEntity
  8
0
 62
7
100
AcDbSpline
 70
8
 71
3
 72
8
 73
4
 74
0
 40
0
 40
0
 40
0
 40
0
 40
1
 40
1
 40
1
 40
1
 10
239.332293
 20
161.746623
 30
0.0
 10
239.827335
 20
161.460811
 30
0.0
 10
240.437252
 20
161.460812
 30
0.0
 10
240.932293
 20
161.746624
 30
0.0
  0
SPLINE
  5
135
100
AcDbEntity
  8
0
 62
7
100
AcDbSpline
 70
8
 71
3
 72
8
 73
4
 74
0
 40
0
 40
0
 40
0
 40
0
 40
1
 40
1
 40
1
 40
1
 10
240.932293
 20
161.746624
 30
0.0
 10
241.427335
 20
162.032437
 30
0.0
 10
241.732293
 20
162.560641
 30
0.0
 10
241.732292
 20
163.132266
 30
0.0
  0
LWPOLYLINE
  5
136
100
AcDbEntity
  8
0
 62
7
100
AcDbPolyline
 90
1
 70
1
 10
92.132290
 20
22.132313
 30
0.0
  0
SPLINE
  5
137
100
AcDbEntity
  8
0
 62
7
100
AcDbSpline
 70
8
 71
3
 72
8
 73
4
 74
0
 40
0
 40
0
 40
0
 40
0
 40
1
 40
1
 40
1
 40
1
 10
138.532291
 20
163.132263
 30
0.0
 10
138.532291
 20
162.560638
 30
0.0
 10
138.837250
 20
162.032435
 30
0.0
 10
139.332292
 20
161.746623
 30
0.0
  0
SPLINE
  5
138
100
AcDbEntity
  8
0
 62
7
100
AcDbSpline
 70
8
 71
3
 72
8
 73
4
 74
0
 40
0
 40
0
 40
0
 40
0
 40
1
 40
1
 40
1
 40
1
 10
139.332292
 20
161.746623
 30
0.0
 10
139.827334
 20
161.460811
 30
0.0
 10
140.437251
 20
161.460812
 30
0.0
 10
140.932292
 20
161.746624
 30
0.0
  0
SPLINE
  5
139
100
AcDbEntity
  8
0
 62
7
100
AcDbSpline
 70
8
 71
3
 72
8
 73
4
 74
0
 40
0
 40
0
 40
0
 40
0
 40
1
 40
1
 40
1
 40
1
 10
140.932292
 20
161.746624
 30
0.0
 10
141.427334
 20
162.032437
 30
0.0
 10
141.732292
 20
162.560641
 30
0.0
 10
141.732291
 20
163.132266
 30
0.0
  0
LWPOLYLINE
  5
13a
100
AcDbEntity
  8
0
 62
7
100
AcDbPolyline
 90
4
 70
0
 10
238.532284
 20
163.132263
 30
0.0
 10
238.532284
 20
168.132267
 30
0.0
 10
141.732288
 20
168.132267
 30
0.0
 10
141.732288
 20
163.132263
 30
0.0
  0
LWPOLYLINE
  5
13b
100
AcDbEntity
  8
0
 62
7
100
AcDbPolyline
 90
2
 70
0
 10
138.532293
 20
168.132267
 30
0.0
 10
138.532293
 20
163.132263
 30
0.0
  0
SPLINE
  5
13c
100
AcDbEntity
  8
0
 62
7
100
AcDbSpline
 70
8
 71
3
 72
8
 73
4
 74
0
 40
0
 40
0
 40
0
 40
0
 40
1
 40
1
 40
1
 40
1
 10
38.532292
 20
163.132263
 30
0.0
 10
38.531635
 20
162.560200
 30
0.0
 10
38.836449
 20
162.031311
 30
0.0
 10
39.331761
 20
161.745090
 30
0.0
  0
SPLINE
  5
13d
100
AcDbEntity
  8
0
 62
7
100
AcDbSpline
 70
8
 71
3
 72
8
 73
4
 74
0
 40
0
 40
0
 40
0
 40
0
 40
1
 40
1
 40
1
 40
1
 10
39.331761
 20
161.745090
 30
0.0
 10
39.827073
 20
161.458869
 30
0.0
 10
40.437512
 20
161.458869
 30
0.0
 10
40.932823
 20
161.745091
 30
0.0
  0
SPLINE
  5
13e
100
AcDbEntity
  8
0
 62
7
100
AcDbSpline
 70
8
 71
3
 72
8
 73
4
 74
0
 40
0
 40
0
 40
0
 40
0
 40
1
 40
1
 40
1
 40
1
 10
40.932823
 20
161.745091
 30
0.0
 10
41.428135
 20
162.031313
 30
0.0
 10
41.732948
 20
162.560203
 30
0.0
 10
41.732290
 20
163.132266
 30
0.0
  0
LWPOLYLINE
  5
13f
100
AcDbEntity
  8
0
 62
7
100
AcDbPolyline
 90
3
 70
0
 10
138.532293
 20
168.132267
 30
0.0
 10
41.732298
 20
168.132267
 30
0.0
 10
41.732298
 20
163.132263
 30
0.0
  0
LWPOLYLINE
  5
140
100
AcDbEntity
  8
0
 62
7
100
AcDbPolyline
 90
2
 70
0
 10
38.532284
 20
168.132267
 30
0.0
 10
38.532284
 20
163.132263
 30
0.0
  0
LWPOLYLINE
  5
141
100
AcDbEntity
  8
0
 62
7
100
AcDbPolyline
 90
2
 70
0
 10
38.532284
 20
168.132267
 30
0.0
 10
0.132292
 20
168.132267
 30
0.0
  0
SPLINE
  5
142
100
AcDbEntity
  8
0
 62
7
100
AcDbSpline
 70
8
 71
3
 72
8
 73
4
 74
0
 40
0
 40
0
 40
0
 40
0
 40
1
 40
1
 40
1
 40
1
 10
438.532270
 20
163.132263
 30
0.0
 10
438.532270
 20
162.560638
 30
0.0
 10
438.837229
 20
162.032434
 30
0.0
 10
439.332272
 20
161.746622
 30
0.0
  0
SPLINE
  5
143
100
AcDbEntity
  8
0
 62
7
100
AcDbSpline
 70
8
 71
3
 72
8
 73
4
 74
0
 40
0
 40
0
 40
0
 40
0
 40
1
 40
1
 40
1
 40
1
 10
439.332272
 20
161.746622
 30
0.0
 10
439.827314
 20
161.460810
 30
0.0
 10
440.437232
 20
161.460810
 30
0.0
 10
440.932273
 20
161.746623
 30
0.0
  0
SPLINE
  5
144
100
AcDbEntity
  8
0
 62
7
100
AcDbSpline
 70
8
 71
3
 72
8
 73
4
 74
0
 40
0
 40
0
 40
0
 40
0
 40
1
 40
1
 40
1
 40
1
 10
440.932273
 20
161.746623
 30
0.0
 10
441.427315
 20
162.032436
 30
0.0
 10
441.732274
 20
162.560640
 30
0.0
 10
441.732273
 20
163.132266
 30
0.0
  0
LWPOLYLINE
  5
145
100
AcDbEntity
  8
0
 62
7
100
AcDbPolyline
 90
3
 70
0
 10
480.132258
 20
168.132267
 30
0.0
 10
441.732300
 20
168.132267
 30
0.0
 10
441.732300
 20
163.132263
 30
0.0
  0
LWPOLYLINE
  5
146
100
AcDbEntity
  8
0
 62
7
100
AcDbPolyline
 90
2
 70
0
 10
438.532296
 20
168.132267
 30
0.0
 10
438.532296
 20
163.132263
 30
0.0
  0
SPLINE
  5
147
100
AcDbEntity
  8
0
 62
7
100
AcDbSpline
 70
8
 71
3
 72
8
 73
4
 74
0
 40
0
 40
0
 40
0
 40
0
 40
1
 40
1
 40
1
 40
1
 10
338.532285
 20
163.132263
 30
0.0
 10
338.532285
 20
162.560638
 30
0.0
 10
338.837244
 20
162.032434
 30
0.0
 10
339.332287
 20
161.746622
 30
0.0
  0
SPLINE
  5
148
100
AcDbEntity
  8
0
 62
7
100
AcDbSpline
 70
8
 71
3
 72
8
 73
4
 74
0
 40
0
 40
0
 40
0
 40
0
 40
1
 40
1
 40
1
 40
1
 10
339.332287
 20
161.746622
 30
0.0
 10
339.827329
 20
161.460810
 30
0.0
 10
340.437246
 20
161.460810
 30
0.0
 10
340.932288
 20
161.746623
 30
0.0
  0
SPLINE
  5
149
100
AcDbEntity
  8
0
 62
7
100
AcDbSpline
 70
8
 71
3
 72
8
 73
4
 74
0
 40
0
 40
0
 40
0
 40
0
 40
1
 40
1
 40
1
 40
1
 10
340.932288
 20
161.746623
 30
0.0
 10
341.427330
 20
162.032436
 30
0.0
 10
341.732288
 20
162.560640
 30
0.0
 10
341.732288
 20
163.132266
 30
0.0
  0
LWPOLYLINE
  5
14a
100
AcDbEntity
  8
0
 62
7
100
AcDbPolyline
 90
3
 70
0
 10
438.532296
 20
168.132267
 30
0.0
 10
341.732288
 20
168.132267
 30
0.0
 10
341.732288
 20
163.132263
 30
0.0
  0
LWPOLYLINE
  5
14b
100
AcDbEntity
  8
0
 62
7
100
AcDbPolyline
 90
2
 70
0
 10
338.532311
 20
168.132267
 30
0.0
 10
338.532311
 20
163.132263
 30
0.0
  0
LWPOLYLINE
  5
14c
100
AcDbEntity
  8
0
 62
7
100
AcDbPolyline
 90
2
 70
0
 10
338.532311
 20
168.132267
 30
0.0
 10
241.732297
 20
168.132267
 30
0.0
  0
SPLINE
  5
14d
100
AcDbEntity
  8
0
 62
7
100
AcDbSpline
 70
8
 71
3
 72
8
 73
4
 74
0
 40
0
 40
0
 40
0
 40
0
 40
1
 40
1
 40
1
 40
1
 10
465.132261
 20
105.132300
 30
0.0
 10
465.132262
 20
106.236864
 30
0.0
 10
464.236840
 20
107.132293
 30
0.0
 10
463.132276
 20
107.132301
 30
0.0
  0
LWPOLYLINE
  5
14e
100
AcDbEntity
  8
0
 62
7
100
AcDbPolyline
 90
2
 70
0
 10
463.132276
 20
107.132301
 30
0.0
 10
411.132258
 20
107.132301
 30
0.0
  0
SPLINE
  5
14f
100
AcDbEntity
  8
0
 62
7
100
AcDbSpline
 70
8
 71
3
 72
8
 73
4
 74
0
 40
0
 40
0
 40
0
 40
0
 40
1
 40
1
 40
1
 40
1
 10
463.132276
 20
95.132301
 30
0.0
 10
464.236839
 20
95.132309
 30
0.0
 10
465.132261
 20
96.027737
 30
0.0
 10
465.132261
 20
97.132300
 30
0.0
  0
LWPOLYLINE
  5
150
100
AcDbEntity
  8
0
 62
7
100
AcDbPolyline
 90
2
 70
0
 10
465.132261
 20
105.132300
 30
0.0
 10
465.132261
 20
97.132300
 30
0.0
  0
SPLINE
  5
151
100
AcDbEntity
  8
0
 62
7
100
AcDbSpline
 70
8
 71
3
 72
8
 73
4
 74
0
 40
0
 40
0
 40
0
 40
0
 40
1
 40
1
 40
1
 40
1
 10
409.132273
 20
97.132300
 30
0.0
 10
409.132273
 20
96.027737
 30
0.0
 10
410.027695
 20
95.132309
 30
0.0
 10
411.132258
 20
95.132301
 30
0.0
  0
LWPOLYLINE
  5
152
100
AcDbEntity
  8
0
 62
7
100
AcDbPolyline
 90
2
 70
0
 10
463.132276
 20
95.132301
 30
0.0
 10
411.132258
 20
95.132301
 30
0.0
  0
SPLINE
  5
153
100
AcDbEntity
  8
0
 62
7
100
AcDbSpline
 70
8
 71
3
 72
8
 73
4
 74
0
 40
0
 40
0
 40
0
 40
0
 40
1
 40
1
 40
1
 40
1
 10
411.132258
 20
107.132301
 30
0.0
 10
410.027694
 20
107.132293
 30
0.0
 10
409.132272
 20
106.236864
 30
0.0
 10
409.132273
 20
105.132300
 30
0.0
  0
LWPOLYLINE
  5
154
100
AcDbEntity
  8
0
 62
7
100
AcDbPolyline
 90
2
 70
0
 10
409.132273
 20
97.132300
 30
0.0
 10
409.132273
 20
105.132300
 30
0.0
  0
LWPOLYLINE
  5
155
100
AcDbEntity
  8
0
 62
7
100
AcDbPolyline
 90
2
 70
0
 10
241.732297
 20
163.132263
 30
0.0
 10
241.732297
 20
168.132267
 30
0.0
  0
LWPOLYLINE
  5
156
100
AcDbEntity
  8
0
 62
7
100
AcDbPolyline
 90
2
 70
0
 10
-21.392688
 20
35.297537
 30
0.0
 10
458.607266
 20
35.297537
 30
0.0
  0
LWPOLYLINE
  5
157
100
AcDbEntity
  8
0
 62
7
100
AcDbPolyline
 90
2
 70
0
 10
480.132284
 20
35.132287
 30
0.0
 10
480.132284
 20
38.132288
 30
0.0
  0
LWPOLYLINE
  5
158
100
AcDbEntity
  8
0
 62
7
100
AcDbPolyline
 90
2
 70
0
 10
480.132284
 20
35.132287
 30
0.0
 10
480.132284
 20
0.132288
 30
0.0
  0
LWPOLYLINE
  5
159
100
AcDbEntity
  8
0
 62
7
100
AcDbPolyline
 90
2
 70
0
 10
0.132292
 20
35.132287
 30
0.0
 10
0.132292
 20
38.132288
 30
0.0
  0
LWPOLYLINE
  5
15a
100
AcDbEntity
  8
0
 62
7
100
AcDbPolyline
 90
2
 70
0
 10
0.132292
 20
35.132287
 30
0.0
 10
0.132292
 20
0.132288
 30
0.0
  0
LWPOLYLINE
  5
15b
100
AcDbEntity
  8
0
 62
7
100
AcDbPolyline
 90
2
 70
0
 10
0.132292
 20
168.132267
 30
0.0
 10
0.132292
 20
41.132267
 30
0.0
  0
LWPOLYLINE
  5
15c
100
AcDbEntity
  8
0
 62
7
100
AcDbPolyline
 90
2
 70
0
 10
0.132292
 20
38.132288
 30
0.0
 10
0.132292
 20
41.132267
 30
0.0
  0
LWPOLYLINE
  5
15d
100
AcDbEntity
  8
0
 62
7
100
AcDbPolyline
 90
2
 70
0
 10
480.132289
 20
168.132267
 30
0.0
 10
480.132289
 20
41.132267
 30
0.0
  0
LWPOLYLINE
  5
15e
100
AcDbEntity
  8
0
 62
7
100
AcDbPolyline
 90
2
 70
0
 10
480.132289
 20
38.132288
 30
0.0
 10
480.132289
 20
41.132267
 30
0.0
  0
ENDSEC
  0
SECTION
  2
OBJECTS
  0
DICTIONARY
  5
C
330
0
100
AcDbDictionary
  3
ACAD_GROUP
350
D
  3
ACAD_MLINESTYLE
350
17
  0
DICTIONARY
  5
D
330
C
100
AcDbDictionary
  0
DICTIONARY
  5
1A
330
C
100
AcDbDictionary
  0
DICTIONARY
  5
17
330
C
100
AcDbDictionary
  3
STANDARD
350
18
  0
DICTIONARY
  5
19
330
C
100
AcDbDictionary
  0
ENDSEC
  0
EOF
