  0
SECTION
  2
HEADER
  9
$ACADVER
  1
AC1014
  9
$HANDSEED
  5
FFFF
  9
$MEASUREMENT
 70
     1
  0
ENDSEC
  0
SECTION
  2
TABLES
  0
TABLE
  2
VPORT
  5
8
330
0
100
AcDbSymbolTable
 70
     4
  0
VPORT
  5
2E
330
8
100
AcDbSymbolTableRecord
100
AcDbViewportTableRecord
  2
*ACTIVE
 70
     0
 10
0.0
 20
0.0
 11
1.0
 21
1.0
 12
210.0
 22
148.5
 13
0.0
 23
0.0
 14
10.0
 24
10.0
 15
10.0
 25
10.0
 16
0.0
 26
0.0
 36
1.0
 17
0.0
 27
0.0
 37
0.0
 40
341.0
 41
1.24
 42
50.0
 43
0.0
 44
0.0
 50
0.0
 51
0.0
 71
     0
 72
   100
 73
     1
 74
     3
 75
     0
 76
     0
 77
     0
 78
     0
  0
ENDTAB
  0
TABLE
  2
LTYPE
  5
5
330
0
100
AcDbSymbolTable
 70
     1
  0
LTYPE
  5
14
330
5
100
AcDbSymbolTableRecord
100
AcDbLinetypeTableRecord
  2
BYBLOCK
 70
     0
  3

 72
    65
 73
     0
 40
0.0
  0
LTYPE
  5
15
330
5
100
AcDbSymbolTableRecord
100
AcDbLinetypeTableRecord
  2
BYLAYER
 70
     0
  3

 72
    65
 73
     0
 40
0.0
  0
LTYPE
  5
16
330
5
100
AcDbSymbolTableRecord
100
AcDbLinetypeTableRecord
  2
CONTINUOUS
 70
     0
  3
Solid line
 72
    65
 73
     0
 40
0.0
  0
ENDTAB
  0
TABLE
  2
LAYER
  5
2
100
AcDbSymbolTable
 70
11
  0
LAYER
  5
50
100
AcDbSymbolTableRecord
100
AcDbLayerTableRecord
  2
0
 70
0
  6
CONTINUOUS
  0
LAYER
  5
51
100
AcDbSymbolTableRecord
100
AcDbLayerTableRecord
  2
axes
 70
0
  6
CONTINUOUS
  0
LAYER
  5
52
100
AcDbSymbolTableRecord
100
AcDbLayerTableRecord
  2
trous
 70
0
  6
CONTINUOUS
  0
LAYER
  5
53
100
AcDbSymbolTableRecord
100
AcDbLayerTableRecord
  2
légendes
 70
0
  6
CONTINUOUS
  0
LAYER
  5
54
100
AcDbSymbolTableRecord
100
AcDbLayerTableRecord
  2
waveforms
 70
0
  6
CONTINUOUS
  0
LAYER
  5
55
100
AcDbSymbolTableRecord
100
AcDbLayerTableRecord
  2
divers
 70
0
  6
CONTINUOUS
  0
LAYER
  5
56
100
AcDbSymbolTableRecord
100
AcDbLayerTableRecord
  2
catégories
 70
0
  6
CONTINUOUS
  0
LAYER
  5
57
100
AcDbSymbolTableRecord
100
AcDbLayerTableRecord
  2
facade
 70
0
  6
CONTINUOUS
  0
LAYER
  5
58
100
AcDbSymbolTableRecord
100
AcDbLayerTableRecord
  2
reperes
 70
0
  6
CONTINUOUS
  0
LAYER
  5
59
100
AcDbSymbolTableRecord
100
AcDbLayerTableRecord
  2
boutons
 70
0
  6
CONTINUOUS
  0
LAYER
  5
5a
100
AcDbSymbolTableRecord
100
AcDbLayerTableRecord
  2
séparations
 70
0
  6
CONTINUOUS
  0
ENDTAB
  0
TABLE
  2
STYLE
  5
3
330
0
100
AcDbSymbolTable
 70
     1
  0
STYLE
  5
11
330
3
100
AcDbSymbolTableRecord
100
AcDbTextStyleTableRecord
  2
STANDARD
 70
     0
 40
0.0
 41
1.0
 50
0.0
 71
     0
 42
2.5
  3
txt
  4

  0
ENDTAB
  0
TABLE
  2
VIEW
  5
6
330
0
100
AcDbSymbolTable
 70
     0
  0
ENDTAB
  0
TABLE
  2
UCS
  5
7
330
0
100
AcDbSymbolTable
 70
     0
  0
ENDTAB
  0
TABLE
  2
APPID
  5
9
330
0
100
AcDbSymbolTable
 70
     2
  0
APPID
  5
12
330
9
100
AcDbSymbolTableRecord
100
AcDbRegAppTableRecord
  2
ACAD
 70
     0
  0
ENDTAB
  0
TABLE
  2
DIMSTYLE
  5
A
330
0
100
AcDbSymbolTable
 70
     1
  0
DIMSTYLE
105
27
330
A
100
AcDbSymbolTableRecord
100
AcDbDimStyleTableRecord
  2
ISO-25
 70
     0
  3

  4

  5

  6

  7

 40
1.0
 41
2.5
 42
0.625
 43
3.75
 44
1.25
 45
0.0
 46
0.0
 47
0.0
 48
0.0
140
2.5
141
2.5
142
0.0
143
0.03937007874016
144
1.0
145
0.0
146
1.0
147
0.625
 71
     0
 72
     0
 73
     0
 74
     0
 75
     0
 76
     0
 77
     1
 78
     8
170
     0
171
     3
172
     1
173
     0
174
     0
175
     0
176
     0
177
     0
178
     0
270
     2
271
     2
272
     2
273
     2
274
     3
340
11
275
     0
280
     0
281
     0
282
     0
283
     0
284
     8
285
     0
286
     0
287
     3
288
     0
  0
ENDTAB
  0
TABLE
  2
BLOCK_RECORD
  5
1
330
0
100
AcDbSymbolTable
 70
     1
  0
BLOCK_RECORD
  5
1F
330
1
100
AcDbSymbolTableRecord
100
AcDbBlockTableRecord
  2
*MODEL_SPACE
  0
BLOCK_RECORD
  5
1B
330
1
100
AcDbSymbolTableRecord
100
AcDbBlockTableRecord
  2
*PAPER_SPACE
  0
ENDTAB
  0
ENDSEC
  0
SECTION
  2
BLOCKS
  0
BLOCK
  5
20
330
1F
100
AcDbEntity
  8
0
100
AcDbBlockBegin
  2
*MODEL_SPACE
 70
     0
 10
0.0
 20
0.0
 30
0.0
  3
*MODEL_SPACE
  1

  0
ENDBLK
  5
21
330
1F
100
AcDbEntity
  8
0
100
AcDbBlockEnd
  0
BLOCK
  5
1C
330
1B
100
AcDbEntity
 67
     1
  8
0
100
AcDbBlockBegin
  2
*PAPER_SPACE
  1

  0
ENDBLK
  5
1D
330
1B
100
AcDbEntity
 67
     1
  8
0
100
AcDbBlockEnd
  0
ENDSEC
  0
SECTION
  2
ENTITIES
  0
LWPOLYLINE
  5
100
100
AcDbEntity
  8
axes
 62
7
100
AcDbPolyline
 90
2
 70
0
 10
344.132297
 20
34.007305
 30
0.0
 10
344.132297
 20
24.257314
 30
0.0
  0
LWPOLYLINE
  5
101
100
AcDbEntity
  8
axes
 62
7
100
AcDbPolyline
 90
2
 70
0
 10
349.007298
 20
29.132314
 30
0.0
 10
339.257296
 20
29.132314
 30
0.0
  0
LWPOLYLINE
  5
102
100
AcDbEntity
  8
axes
 62
7
100
AcDbPolyline
 90
2
 70
0
 10
308.132295
 20
34.007305
 30
0.0
 10
308.132295
 20
24.257314
 30
0.0
  0
LWPOLYLINE
  5
103
100
AcDbEntity
  8
axes
 62
7
100
AcDbPolyline
 90
2
 70
0
 10
313.007296
 20
29.132314
 30
0.0
 10
303.257294
 20
29.132314
 30
0.0
  0
LWPOLYLINE
  5
104
100
AcDbEntity
  8
axes
 62
7
100
AcDbPolyline
 90
2
 70
0
 10
268.132295
 20
52.007306
 30
0.0
 10
268.132295
 20
42.257304
 30
0.0
  0
LWPOLYLINE
  5
105
100
AcDbEntity
  8
axes
 62
7
100
AcDbPolyline
 90
2
 70
0
 10
273.007296
 20
47.132305
 30
0.0
 10
263.257289
 20
47.132305
 30
0.0
  0
LWPOLYLINE
  5
106
100
AcDbEntity
  8
axes
 62
7
100
AcDbPolyline
 90
2
 70
0
 10
212.132304
 20
34.007305
 30
0.0
 10
212.132304
 20
24.257314
 30
0.0
  0
LWPOLYLINE
  5
107
100
AcDbEntity
  8
axes
 62
7
100
AcDbPolyline
 90
2
 70
0
 10
217.007305
 20
29.132314
 30
0.0
 10
207.257303
 20
29.132314
 30
0.0
  0
LWPOLYLINE
  5
108
100
AcDbEntity
  8
axes
 62
7
100
AcDbPolyline
 90
2
 70
0
 10
172.132305
 20
34.007305
 30
0.0
 10
172.132305
 20
24.257314
 30
0.0
  0
LWPOLYLINE
  5
109
100
AcDbEntity
  8
axes
 62
7
100
AcDbPolyline
 90
2
 70
0
 10
177.007306
 20
29.132314
 30
0.0
 10
167.257304
 20
29.132314
 30
0.0
  0
LWPOLYLINE
  5
10a
100
AcDbEntity
  8
axes
 62
7
100
AcDbPolyline
 90
2
 70
0
 10
136.132303
 20
34.007305
 30
0.0
 10
136.132303
 20
24.257314
 30
0.0
  0
LWPOLYLINE
  5
10b
100
AcDbEntity
  8
axes
 62
7
100
AcDbPolyline
 90
2
 70
0
 10
141.007304
 20
29.132314
 30
0.0
 10
131.257302
 20
29.132314
 30
0.0
  0
LWPOLYLINE
  5
10c
100
AcDbEntity
  8
axes
 62
7
100
AcDbPolyline
 90
2
 70
0
 10
100.132301
 20
34.007305
 30
0.0
 10
100.132301
 20
24.257314
 30
0.0
  0
LWPOLYLINE
  5
10d
100
AcDbEntity
  8
axes
 62
7
100
AcDbPolyline
 90
2
 70
0
 10
105.007302
 20
29.132314
 30
0.0
 10
95.257300
 20
29.132314
 30
0.0
  0
LWPOLYLINE
  5
10e
100
AcDbEntity
  8
axes
 62
7
100
AcDbPolyline
 90
2
 70
0
 10
24.132298
 20
24.357401
 30
0.0
 10
24.132298
 20
15.907414
 30
0.0
  0
LWPOLYLINE
  5
10f
100
AcDbEntity
  8
axes
 62
7
100
AcDbPolyline
 90
2
 70
0
 10
28.357298
 20
20.132413
 30
0.0
 10
19.907299
 20
20.132413
 30
0.0
  0
LWPOLYLINE
  5
110
100
AcDbEntity
  8
axes
 62
7
100
AcDbPolyline
 90
2
 70
0
 10
456.132274
 20
33.357303
 30
0.0
 10
456.132274
 20
24.907315
 30
0.0
  0
LWPOLYLINE
  5
111
100
AcDbEntity
  8
axes
 62
7
100
AcDbPolyline
 90
2
 70
0
 10
460.357299
 20
29.132314
 30
0.0
 10
451.907275
 20
29.132314
 30
0.0
  0
LWPOLYLINE
  5
112
100
AcDbEntity
  8
axes
 62
7
100
AcDbPolyline
 90
2
 70
0
 10
80.132288
 20
51.357312
 30
0.0
 10
80.132288
 20
42.907309
 30
0.0
  0
LWPOLYLINE
  5
113
100
AcDbEntity
  8
axes
 62
7
100
AcDbPolyline
 90
2
 70
0
 10
84.357287
 20
47.132305
 30
0.0
 10
75.907289
 20
47.132305
 30
0.0
  0
LWPOLYLINE
  5
114
100
AcDbEntity
  8
axes
 62
7
100
AcDbPolyline
 90
2
 70
0
 10
240.132285
 20
51.357312
 30
0.0
 10
240.132285
 20
42.907309
 30
0.0
  0
LWPOLYLINE
  5
115
100
AcDbEntity
  8
axes
 62
7
100
AcDbPolyline
 90
2
 70
0
 10
244.357311
 20
47.132305
 30
0.0
 10
235.907286
 20
47.132305
 30
0.0
  0
LWPOLYLINE
  5
116
100
AcDbEntity
  8
axes
 62
7
100
AcDbPolyline
 90
2
 70
0
 10
240.132285
 20
33.357303
 30
0.0
 10
240.132285
 20
24.907315
 30
0.0
  0
LWPOLYLINE
  5
117
100
AcDbEntity
  8
axes
 62
7
100
AcDbPolyline
 90
2
 70
0
 10
244.357311
 20
29.132314
 30
0.0
 10
235.907286
 20
29.132314
 30
0.0
  0
LWPOLYLINE
  5
118
100
AcDbEntity
  8
axes
 62
7
100
AcDbPolyline
 90
2
 70
0
 10
288.132298
 20
51.357299
 30
0.0
 10
288.132298
 20
42.907311
 30
0.0
  0
LWPOLYLINE
  5
119
100
AcDbEntity
  8
axes
 62
7
100
AcDbPolyline
 90
2
 70
0
 10
292.357297
 20
47.132310
 30
0.0
 10
283.907293
 20
47.132310
 30
0.0
  0
LWPOLYLINE
  5
11a
100
AcDbEntity
  8
axes
 62
7
100
AcDbPolyline
 90
2
 70
0
 10
60.132301
 20
24.357401
 30
0.0
 10
60.132301
 20
15.907414
 30
0.0
  0
LWPOLYLINE
  5
11b
100
AcDbEntity
  8
axes
 62
7
100
AcDbPolyline
 90
2
 70
0
 10
64.357300
 20
20.132413
 30
0.0
 10
55.907276
 20
20.132413
 30
0.0
  0
LWPOLYLINE
  5
11c
100
AcDbEntity
  8
axes
 62
7
100
AcDbPolyline
 90
2
 70
0
 10
24.132298
 20
52.007306
 30
0.0
 10
24.132298
 20
42.257304
 30
0.0
  0
LWPOLYLINE
  5
11d
100
AcDbEntity
  8
axes
 62
7
100
AcDbPolyline
 90
2
 70
0
 10
29.007300
 20
47.132305
 30
0.0
 10
19.257298
 20
47.132305
 30
0.0
  0
LWPOLYLINE
  5
11e
100
AcDbEntity
  8
axes
 62
7
100
AcDbPolyline
 90
2
 70
0
 10
60.132301
 20
52.007306
 30
0.0
 10
60.132301
 20
42.257304
 30
0.0
  0
LWPOLYLINE
  5
11f
100
AcDbEntity
  8
axes
 62
7
100
AcDbPolyline
 90
2
 70
0
 10
65.007302
 20
47.132305
 30
0.0
 10
55.257300
 20
47.132305
 30
0.0
  0
LWPOLYLINE
  5
120
100
AcDbEntity
  8
axes
 62
7
100
AcDbPolyline
 90
2
 70
0
 10
416.132275
 20
34.007305
 30
0.0
 10
416.132275
 20
24.257314
 30
0.0
  0
LWPOLYLINE
  5
121
100
AcDbEntity
  8
axes
 62
7
100
AcDbPolyline
 90
2
 70
0
 10
421.007275
 20
29.132314
 30
0.0
 10
411.257274
 20
29.132314
 30
0.0
  0
LWPOLYLINE
  5
122
100
AcDbEntity
  8
axes
 62
7
100
AcDbPolyline
 90
2
 70
0
 10
380.132272
 20
34.007305
 30
0.0
 10
380.132272
 20
24.257314
 30
0.0
  0
LWPOLYLINE
  5
123
100
AcDbEntity
  8
axes
 62
7
100
AcDbPolyline
 90
2
 70
0
 10
385.007273
 20
29.132314
 30
0.0
 10
375.257272
 20
29.132314
 30
0.0
  0
LWPOLYLINE
  5
124
100
AcDbEntity
  8
axes
 62
7
100
AcDbPolyline
 90
2
 70
0
 10
456.132274
 20
70.007304
 30
0.0
 10
456.132274
 20
60.257305
 30
0.0
  0
LWPOLYLINE
  5
125
100
AcDbEntity
  8
axes
 62
7
100
AcDbPolyline
 90
2
 70
0
 10
461.007275
 20
65.132306
 30
0.0
 10
451.257273
 20
65.132306
 30
0.0
  0
LWPOLYLINE
  5
126
100
AcDbEntity
  8
axes
 62
7
100
AcDbPolyline
 90
2
 70
0
 10
380.132272
 20
70.007304
 30
0.0
 10
380.132272
 20
60.257305
 30
0.0
  0
LWPOLYLINE
  5
127
100
AcDbEntity
  8
axes
 62
7
100
AcDbPolyline
 90
2
 70
0
 10
385.007273
 20
65.132306
 30
0.0
 10
375.257272
 20
65.132306
 30
0.0
  0
LWPOLYLINE
  5
128
100
AcDbEntity
  8
axes
 62
7
100
AcDbPolyline
 90
2
 70
0
 10
344.132297
 20
70.007304
 30
0.0
 10
344.132297
 20
60.257305
 30
0.0
  0
LWPOLYLINE
  5
129
100
AcDbEntity
  8
axes
 62
7
100
AcDbPolyline
 90
2
 70
0
 10
349.007298
 20
65.132306
 30
0.0
 10
339.257296
 20
65.132306
 30
0.0
  0
LWPOLYLINE
  5
12a
100
AcDbEntity
  8
axes
 62
7
100
AcDbPolyline
 90
2
 70
0
 10
308.132295
 20
70.007304
 30
0.0
 10
308.132295
 20
60.257305
 30
0.0
  0
LWPOLYLINE
  5
12b
100
AcDbEntity
  8
axes
 62
7
100
AcDbPolyline
 90
2
 70
0
 10
313.007296
 20
65.132306
 30
0.0
 10
303.257294
 20
65.132306
 30
0.0
  0
LWPOLYLINE
  5
12c
100
AcDbEntity
  8
axes
 62
7
100
AcDbPolyline
 90
2
 70
0
 10
268.132295
 20
88.007305
 30
0.0
 10
268.132295
 20
78.257306
 30
0.0
  0
LWPOLYLINE
  5
12d
100
AcDbEntity
  8
axes
 62
7
100
AcDbPolyline
 90
2
 70
0
 10
273.007296
 20
83.132304
 30
0.0
 10
263.257289
 20
83.132304
 30
0.0
  0
LWPOLYLINE
  5
12e
100
AcDbEntity
  8
axes
 62
7
100
AcDbPolyline
 90
2
 70
0
 10
212.132304
 20
70.007304
 30
0.0
 10
212.132304
 20
60.257305
 30
0.0
  0
LWPOLYLINE
  5
12f
100
AcDbEntity
  8
axes
 62
7
100
AcDbPolyline
 90
2
 70
0
 10
217.007305
 20
65.132306
 30
0.0
 10
207.257303
 20
65.132306
 30
0.0
  0
LWPOLYLINE
  5
130
100
AcDbEntity
  8
axes
 62
7
100
AcDbPolyline
 90
2
 70
0
 10
172.132305
 20
70.007304
 30
0.0
 10
172.132305
 20
60.257305
 30
0.0
  0
LWPOLYLINE
  5
131
100
AcDbEntity
  8
axes
 62
7
100
AcDbPolyline
 90
2
 70
0
 10
177.007306
 20
65.132306
 30
0.0
 10
167.257304
 20
65.132306
 30
0.0
  0
LWPOLYLINE
  5
132
100
AcDbEntity
  8
axes
 62
7
100
AcDbPolyline
 90
2
 70
0
 10
136.132303
 20
70.007304
 30
0.0
 10
136.132303
 20
60.257305
 30
0.0
  0
LWPOLYLINE
  5
133
100
AcDbEntity
  8
axes
 62
7
100
AcDbPolyline
 90
2
 70
0
 10
141.007304
 20
65.132306
 30
0.0
 10
131.257302
 20
65.132306
 30
0.0
  0
LWPOLYLINE
  5
134
100
AcDbEntity
  8
axes
 62
7
100
AcDbPolyline
 90
2
 70
0
 10
100.132301
 20
70.007304
 30
0.0
 10
100.132301
 20
60.257305
 30
0.0
  0
LWPOLYLINE
  5
135
100
AcDbEntity
  8
axes
 62
7
100
AcDbPolyline
 90
2
 70
0
 10
105.007302
 20
65.132306
 30
0.0
 10
95.257300
 20
65.132306
 30
0.0
  0
LWPOLYLINE
  5
136
100
AcDbEntity
  8
axes
 62
7
100
AcDbPolyline
 90
2
 70
0
 10
42.132300
 20
106.007304
 30
0.0
 10
42.132300
 20
96.257305
 30
0.0
  0
LWPOLYLINE
  5
137
100
AcDbEntity
  8
axes
 62
7
100
AcDbPolyline
 90
2
 70
0
 10
47.007301
 20
101.132303
 30
0.0
 10
37.257299
 20
101.132303
 30
0.0
  0
LWPOLYLINE
  5
138
100
AcDbEntity
  8
axes
 62
7
100
AcDbPolyline
 90
2
 70
0
 10
80.132288
 20
87.357311
 30
0.0
 10
80.132288
 20
78.907300
 30
0.0
  0
LWPOLYLINE
  5
139
100
AcDbEntity
  8
axes
 62
7
100
AcDbPolyline
 90
2
 70
0
 10
84.357287
 20
83.132304
 30
0.0
 10
75.907289
 20
83.132304
 30
0.0
  0
LWPOLYLINE
  5
13a
100
AcDbEntity
  8
axes
 62
7
100
AcDbPolyline
 90
2
 70
0
 10
288.132282
 20
87.357311
 30
0.0
 10
288.132282
 20
78.907300
 30
0.0
  0
LWPOLYLINE
  5
13b
100
AcDbEntity
  8
axes
 62
7
100
AcDbPolyline
 90
2
 70
0
 10
292.357307
 20
83.132304
 30
0.0
 10
283.907283
 20
83.132304
 30
0.0
  0
LWPOLYLINE
  5
13c
100
AcDbEntity
  8
axes
 62
7
100
AcDbPolyline
 90
2
 70
0
 10
288.132282
 20
69.357310
 30
0.0
 10
288.132282
 20
60.907299
 30
0.0
  0
LWPOLYLINE
  5
13d
100
AcDbEntity
  8
axes
 62
7
100
AcDbPolyline
 90
2
 70
0
 10
292.357307
 20
65.132306
 30
0.0
 10
283.907283
 20
65.132306
 30
0.0
  0
LWPOLYLINE
  5
13e
100
AcDbEntity
  8
axes
 62
7
100
AcDbPolyline
 90
2
 70
0
 10
240.132285
 20
87.357311
 30
0.0
 10
240.132285
 20
78.907300
 30
0.0
  0
LWPOLYLINE
  5
13f
100
AcDbEntity
  8
axes
 62
7
100
AcDbPolyline
 90
2
 70
0
 10
244.357311
 20
83.132304
 30
0.0
 10
235.907286
 20
83.132304
 30
0.0
  0
LWPOLYLINE
  5
140
100
AcDbEntity
  8
axes
 62
7
100
AcDbPolyline
 90
2
 70
0
 10
240.132285
 20
69.357310
 30
0.0
 10
240.132285
 20
60.907299
 30
0.0
  0
LWPOLYLINE
  5
141
100
AcDbEntity
  8
axes
 62
7
100
AcDbPolyline
 90
2
 70
0
 10
244.357311
 20
65.132306
 30
0.0
 10
235.907286
 20
65.132306
 30
0.0
  0
LWPOLYLINE
  5
142
100
AcDbEntity
  8
axes
 62
7
100
AcDbPolyline
 90
2
 70
0
 10
42.132314
 20
78.357413
 30
0.0
 10
42.132314
 20
69.907401
 30
0.0
  0
LWPOLYLINE
  5
143
100
AcDbEntity
  8
axes
 62
7
100
AcDbPolyline
 90
2
 70
0
 10
46.357312
 20
74.132408
 30
0.0
 10
37.907288
 20
74.132408
 30
0.0
  0
LWPOLYLINE
  5
144
100
AcDbEntity
  8
axes
 62
7
100
AcDbPolyline
 90
2
 70
0
 10
416.132275
 20
70.007304
 30
0.0
 10
416.132275
 20
60.257305
 30
0.0
  0
LWPOLYLINE
  5
145
100
AcDbEntity
  8
axes
 62
7
100
AcDbPolyline
 90
2
 70
0
 10
421.007275
 20
65.132306
 30
0.0
 10
411.257274
 20
65.132306
 30
0.0
  0
LWPOLYLINE
  5
146
100
AcDbEntity
  8
axes
 62
7
100
AcDbPolyline
 90
2
 70
0
 10
456.132274
 20
106.007306
 30
0.0
 10
456.132274
 20
96.257304
 30
0.0
  0
LWPOLYLINE
  5
147
100
AcDbEntity
  8
axes
 62
7
100
AcDbPolyline
 90
2
 70
0
 10
461.007275
 20
101.132305
 30
0.0
 10
451.257273
 20
101.132305
 30
0.0
  0
LWPOLYLINE
  5
148
100
AcDbEntity
  8
axes
 62
7
100
AcDbPolyline
 90
2
 70
0
 10
344.132297
 20
106.007306
 30
0.0
 10
344.132297
 20
96.257304
 30
0.0
  0
LWPOLYLINE
  5
149
100
AcDbEntity
  8
axes
 62
7
100
AcDbPolyline
 90
2
 70
0
 10
349.007298
 20
101.132305
 30
0.0
 10
339.257296
 20
101.132305
 30
0.0
  0
LWPOLYLINE
  5
14a
100
AcDbEntity
  8
axes
 62
7
100
AcDbPolyline
 90
2
 70
0
 10
308.132295
 20
106.007306
 30
0.0
 10
308.132295
 20
96.257304
 30
0.0
  0
LWPOLYLINE
  5
14b
100
AcDbEntity
  8
axes
 62
7
100
AcDbPolyline
 90
2
 70
0
 10
313.007296
 20
101.132305
 30
0.0
 10
303.257294
 20
101.132305
 30
0.0
  0
LWPOLYLINE
  5
14c
100
AcDbEntity
  8
axes
 62
7
100
AcDbPolyline
 90
2
 70
0
 10
212.132304
 20
106.007306
 30
0.0
 10
212.132304
 20
96.257304
 30
0.0
  0
LWPOLYLINE
  5
14d
100
AcDbEntity
  8
axes
 62
7
100
AcDbPolyline
 90
2
 70
0
 10
217.007305
 20
101.132305
 30
0.0
 10
207.257303
 20
101.132305
 30
0.0
  0
LWPOLYLINE
  5
14e
100
AcDbEntity
  8
axes
 62
7
100
AcDbPolyline
 90
2
 70
0
 10
172.132305
 20
106.007306
 30
0.0
 10
172.132305
 20
96.257304
 30
0.0
  0
LWPOLYLINE
  5
14f
100
AcDbEntity
  8
axes
 62
7
100
AcDbPolyline
 90
2
 70
0
 10
177.007306
 20
101.132305
 30
0.0
 10
167.257304
 20
101.132305
 30
0.0
  0
LWPOLYLINE
  5
150
100
AcDbEntity
  8
axes
 62
7
100
AcDbPolyline
 90
2
 70
0
 10
100.132301
 20
106.007306
 30
0.0
 10
100.132301
 20
96.257304
 30
0.0
  0
LWPOLYLINE
  5
151
100
AcDbEntity
  8
axes
 62
7
100
AcDbPolyline
 90
2
 70
0
 10
105.007302
 20
101.132305
 30
0.0
 10
95.257300
 20
101.132305
 30
0.0
  0
LWPOLYLINE
  5
152
100
AcDbEntity
  8
axes
 62
7
100
AcDbPolyline
 90
2
 70
0
 10
288.132282
 20
105.357312
 30
0.0
 10
288.132282
 20
96.907298
 30
0.0
  0
LWPOLYLINE
  5
153
100
AcDbEntity
  8
axes
 62
7
100
AcDbPolyline
 90
2
 70
0
 10
292.357307
 20
101.132305
 30
0.0
 10
283.907283
 20
101.132305
 30
0.0
  0
LWPOLYLINE
  5
154
100
AcDbEntity
  8
axes
 62
7
100
AcDbPolyline
 90
2
 70
0
 10
240.132285
 20
105.357312
 30
0.0
 10
240.132285
 20
96.907298
 30
0.0
  0
LWPOLYLINE
  5
155
100
AcDbEntity
  8
axes
 62
7
100
AcDbPolyline
 90
2
 70
0
 10
244.357311
 20
101.132305
 30
0.0
 10
235.907286
 20
101.132305
 30
0.0
  0
LWPOLYLINE
  5
156
100
AcDbEntity
  8
axes
 62
7
100
AcDbPolyline
 90
2
 70
0
 10
416.132275
 20
106.007306
 30
0.0
 10
416.132275
 20
96.257304
 30
0.0
  0
LWPOLYLINE
  5
157
100
AcDbEntity
  8
axes
 62
7
100
AcDbPolyline
 90
2
 70
0
 10
421.007275
 20
101.132305
 30
0.0
 10
411.257274
 20
101.132305
 30
0.0
  0
LWPOLYLINE
  5
158
100
AcDbEntity
  8
axes
 62
7
100
AcDbPolyline
 90
2
 70
0
 10
380.132272
 20
106.007306
 30
0.0
 10
380.132272
 20
96.257304
 30
0.0
  0
SPLINE
  5
159
100
AcDbEntity
  8
trous
 62
7
100
AcDbSpline
 70
8
 71
3
 72
8
 73
4
 74
0
 40
0
 40
0
 40
0
 40
0
 40
1
 40
1
 40
1
 40
1
 10
27.382282
 20
20.132406
 30
0.0
 10
27.384129
 20
21.294748
 30
0.0
 10
26.765087
 20
22.369587
 30
0.0
 10
25.758776
 20
22.951292
 30
0.0
  0
SPLINE
  5
15a
100
AcDbEntity
  8
trous
 62
7
100
AcDbSpline
 70
8
 71
3
 72
8
 73
4
 74
0
 40
0
 40
0
 40
0
 40
0
 40
1
 40
1
 40
1
 40
1
 10
25.758776
 20
22.951292
 30
0.0
 10
24.752465
 20
23.532996
 30
0.0
 10
23.512106
 20
23.532996
 30
0.0
 10
22.505795
 20
22.951292
 30
0.0
  0
SPLINE
  5
15b
100
AcDbEntity
  8
trous
 62
7
100
AcDbSpline
 70
8
 71
3
 72
8
 73
4
 74
0
 40
0
 40
0
 40
0
 40
0
 40
1
 40
1
 40
1
 40
1
 10
22.505795
 20
22.951292
 30
0.0
 10
21.499484
 20
22.369587
 30
0.0
 10
20.880443
 20
21.294748
 30
0.0
 10
20.882289
 20
20.132406
 30
0.0
  0
SPLINE
  5
15c
100
AcDbEntity
  8
trous
 62
7
100
AcDbSpline
 70
8
 71
3
 72
8
 73
4
 74
0
 40
0
 40
0
 40
0
 40
0
 40
1
 40
1
 40
1
 40
1
 10
20.882289
 20
20.132406
 30
0.0
 10
20.880443
 20
18.970065
 30
0.0
 10
21.499484
 20
17.895226
 30
0.0
 10
22.505795
 20
17.313521
 30
0.0
  0
SPLINE
  5
15d
100
AcDbEntity
  8
trous
 62
7
100
AcDbSpline
 70
8
 71
3
 72
8
 73
4
 74
0
 40
0
 40
0
 40
0
 40
0
 40
1
 40
1
 40
1
 40
1
 10
22.505795
 20
17.313521
 30
0.0
 10
23.512106
 20
16.731817
 30
0.0
 10
24.752465
 20
16.731817
 30
0.0
 10
25.758776
 20
17.313521
 30
0.0
  0
SPLINE
  5
15e
100
AcDbEntity
  8
trous
 62
7
100
AcDbSpline
 70
8
 71
3
 72
8
 73
4
 74
0
 40
0
 40
0
 40
0
 40
0
 40
1
 40
1
 40
1
 40
1
 10
25.758776
 20
17.313521
 30
0.0
 10
26.765087
 20
17.895226
 30
0.0
 10
27.384129
 20
18.970065
 30
0.0
 10
27.382282
 20
20.132406
 30
0.0
  0
LWPOLYLINE
  5
15f
100
AcDbEntity
  8
axes
 62
7
100
AcDbPolyline
 90
2
 70
0
 10
385.007273
 20
101.132305
 30
0.0
 10
375.257272
 20
101.132305
 30
0.0
  0
SPLINE
  5
160
100
AcDbEntity
  8
trous
 62
7
100
AcDbSpline
 70
8
 71
3
 72
8
 73
4
 74
0
 40
0
 40
0
 40
0
 40
0
 40
1
 40
1
 40
1
 40
1
 10
419.882294
 20
101.132305
 30
0.0
 10
419.882294
 20
102.472053
 30
0.0
 10
419.167546
 20
103.710032
 30
0.0
 10
418.007291
 20
104.379906
 30
0.0
  0
SPLINE
  5
161
100
AcDbEntity
  8
trous
 62
7
100
AcDbSpline
 70
8
 71
3
 72
8
 73
4
 74
0
 40
0
 40
0
 40
0
 40
0
 40
1
 40
1
 40
1
 40
1
 10
418.007291
 20
104.379906
 30
0.0
 10
416.847035
 20
105.049780
 30
0.0
 10
415.417541
 20
105.049780
 30
0.0
 10
414.257285
 20
104.379906
 30
0.0
  0
SPLINE
  5
162
100
AcDbEntity
  8
trous
 62
7
100
AcDbSpline
 70
8
 71
3
 72
8
 73
4
 74
0
 40
0
 40
0
 40
0
 40
0
 40
1
 40
1
 40
1
 40
1
 10
414.257285
 20
104.379906
 30
0.0
 10
413.097029
 20
103.710032
 30
0.0
 10
412.382282
 20
102.472053
 30
0.0
 10
412.382282
 20
101.132305
 30
0.0
  0
SPLINE
  5
163
100
AcDbEntity
  8
trous
 62
7
100
AcDbSpline
 70
8
 71
3
 72
8
 73
4
 74
0
 40
0
 40
0
 40
0
 40
0
 40
1
 40
1
 40
1
 40
1
 10
412.382282
 20
101.132305
 30
0.0
 10
412.382282
 20
99.792557
 30
0.0
 10
413.097029
 20
98.554579
 30
0.0
 10
414.257285
 20
97.884705
 30
0.0
  0
SPLINE
  5
164
100
AcDbEntity
  8
trous
 62
7
100
AcDbSpline
 70
8
 71
3
 72
8
 73
4
 74
0
 40
0
 40
0
 40
0
 40
0
 40
1
 40
1
 40
1
 40
1
 10
414.257285
 20
97.884705
 30
0.0
 10
415.417541
 20
97.214831
 30
0.0
 10
416.847035
 20
97.214831
 30
0.0
 10
418.007291
 20
97.884705
 30
0.0
  0
SPLINE
  5
165
100
AcDbEntity
  8
trous
 62
7
100
AcDbSpline
 70
8
 71
3
 72
8
 73
4
 74
0
 40
0
 40
0
 40
0
 40
0
 40
1
 40
1
 40
1
 40
1
 10
418.007291
 20
97.884705
 30
0.0
 10
419.167546
 20
98.554579
 30
0.0
 10
419.882294
 20
99.792557
 30
0.0
 10
419.882294
 20
101.132305
 30
0.0
  0
LWPOLYLINE
  5
166
100
AcDbEntity
  8
trous
 62
7
100
AcDbPolyline
 90
1
 70
1
 10
27.382282
 20
20.132406
 30
0.0
  0
SPLINE
  5
167
100
AcDbEntity
  8
trous
 62
7
100
AcDbSpline
 70
8
 71
3
 72
8
 73
4
 74
0
 40
0
 40
0
 40
0
 40
0
 40
1
 40
1
 40
1
 40
1
 10
419.882294
 20
65.132306
 30
0.0
 10
419.882294
 20
66.472054
 30
0.0
 10
419.167546
 20
67.710032
 30
0.0
 10
418.007291
 20
68.379906
 30
0.0
  0
SPLINE
  5
168
100
AcDbEntity
  8
trous
 62
7
100
AcDbSpline
 70
8
 71
3
 72
8
 73
4
 74
0
 40
0
 40
0
 40
0
 40
0
 40
1
 40
1
 40
1
 40
1
 10
418.007291
 20
68.379906
 30
0.0
 10
416.847035
 20
69.049780
 30
0.0
 10
415.417541
 20
69.049780
 30
0.0
 10
414.257285
 20
68.379906
 30
0.0
  0
SPLINE
  5
169
100
AcDbEntity
  8
trous
 62
7
100
AcDbSpline
 70
8
 71
3
 72
8
 73
4
 74
0
 40
0
 40
0
 40
0
 40
0
 40
1
 40
1
 40
1
 40
1
 10
414.257285
 20
68.379906
 30
0.0
 10
413.097029
 20
67.710032
 30
0.0
 10
412.382282
 20
66.472054
 30
0.0
 10
412.382282
 20
65.132306
 30
0.0
  0
SPLINE
  5
16a
100
AcDbEntity
  8
trous
 62
7
100
AcDbSpline
 70
8
 71
3
 72
8
 73
4
 74
0
 40
0
 40
0
 40
0
 40
0
 40
1
 40
1
 40
1
 40
1
 10
412.382282
 20
65.132306
 30
0.0
 10
412.382282
 20
63.792558
 30
0.0
 10
413.097029
 20
62.554580
 30
0.0
 10
414.257285
 20
61.884706
 30
0.0
  0
SPLINE
  5
16b
100
AcDbEntity
  8
trous
 62
7
100
AcDbSpline
 70
8
 71
3
 72
8
 73
4
 74
0
 40
0
 40
0
 40
0
 40
0
 40
1
 40
1
 40
1
 40
1
 10
414.257285
 20
61.884706
 30
0.0
 10
415.417541
 20
61.214832
 30
0.0
 10
416.847035
 20
61.214832
 30
0.0
 10
418.007291
 20
61.884706
 30
0.0
  0
SPLINE
  5
16c
100
AcDbEntity
  8
trous
 62
7
100
AcDbSpline
 70
8
 71
3
 72
8
 73
4
 74
0
 40
0
 40
0
 40
0
 40
0
 40
1
 40
1
 40
1
 40
1
 10
418.007291
 20
61.884706
 30
0.0
 10
419.167546
 20
62.554580
 30
0.0
 10
419.882294
 20
63.792558
 30
0.0
 10
419.882294
 20
65.132306
 30
0.0
  0
LWPOLYLINE
  5
16d
100
AcDbEntity
  8
trous
 62
7
100
AcDbPolyline
 90
1
 70
1
 10
419.882294
 20
101.132305
 30
0.0
  0
SPLINE
  5
16e
100
AcDbEntity
  8
trous
 62
7
100
AcDbSpline
 70
8
 71
3
 72
8
 73
4
 74
0
 40
0
 40
0
 40
0
 40
0
 40
1
 40
1
 40
1
 40
1
 10
419.882294
 20
29.132314
 30
0.0
 10
419.882294
 20
30.472062
 30
0.0
 10
419.167546
 20
31.710041
 30
0.0
 10
418.007291
 20
32.379915
 30
0.0
  0
SPLINE
  5
16f
100
AcDbEntity
  8
trous
 62
7
100
AcDbSpline
 70
8
 71
3
 72
8
 73
4
 74
0
 40
0
 40
0
 40
0
 40
0
 40
1
 40
1
 40
1
 40
1
 10
418.007291
 20
32.379915
 30
0.0
 10
416.847035
 20
33.049789
 30
0.0
 10
415.417541
 20
33.049789
 30
0.0
 10
414.257285
 20
32.379915
 30
0.0
  0
SPLINE
  5
170
100
AcDbEntity
  8
trous
 62
7
100
AcDbSpline
 70
8
 71
3
 72
8
 73
4
 74
0
 40
0
 40
0
 40
0
 40
0
 40
1
 40
1
 40
1
 40
1
 10
414.257285
 20
32.379915
 30
0.0
 10
413.097029
 20
31.710041
 30
0.0
 10
412.382282
 20
30.472062
 30
0.0
 10
412.382282
 20
29.132314
 30
0.0
  0
SPLINE
  5
171
100
AcDbEntity
  8
trous
 62
7
100
AcDbSpline
 70
8
 71
3
 72
8
 73
4
 74
0
 40
0
 40
0
 40
0
 40
0
 40
1
 40
1
 40
1
 40
1
 10
412.382282
 20
29.132314
 30
0.0
 10
412.382282
 20
27.792566
 30
0.0
 10
413.097029
 20
26.554588
 30
0.0
 10
414.257285
 20
25.884714
 30
0.0
  0
SPLINE
  5
172
100
AcDbEntity
  8
trous
 62
7
100
AcDbSpline
 70
8
 71
3
 72
8
 73
4
 74
0
 40
0
 40
0
 40
0
 40
0
 40
1
 40
1
 40
1
 40
1
 10
414.257285
 20
25.884714
 30
0.0
 10
415.417541
 20
25.214840
 30
0.0
 10
416.847035
 20
25.214840
 30
0.0
 10
418.007291
 20
25.884714
 30
0.0
  0
SPLINE
  5
173
100
AcDbEntity
  8
trous
 62
7
100
AcDbSpline
 70
8
 71
3
 72
8
 73
4
 74
0
 40
0
 40
0
 40
0
 40
0
 40
1
 40
1
 40
1
 40
1
 10
418.007291
 20
25.884714
 30
0.0
 10
419.167546
 20
26.554588
 30
0.0
 10
419.882294
 20
27.792566
 30
0.0
 10
419.882294
 20
29.132314
 30
0.0
  0
LWPOLYLINE
  5
174
100
AcDbEntity
  8
trous
 62
7
100
AcDbPolyline
 90
1
 70
1
 10
419.882294
 20
65.132306
 30
0.0
  0
SPLINE
  5
175
100
AcDbEntity
  8
trous
 62
7
100
AcDbSpline
 70
8
 71
3
 72
8
 73
4
 74
0
 40
0
 40
0
 40
0
 40
0
 40
1
 40
1
 40
1
 40
1
 10
383.882291
 20
29.132314
 30
0.0
 10
383.882291
 20
30.472062
 30
0.0
 10
383.167544
 20
31.710041
 30
0.0
 10
382.007289
 20
32.379915
 30
0.0
  0
SPLINE
  5
176
100
AcDbEntity
  8
trous
 62
7
100
AcDbSpline
 70
8
 71
3
 72
8
 73
4
 74
0
 40
0
 40
0
 40
0
 40
0
 40
1
 40
1
 40
1
 40
1
 10
382.007289
 20
32.379915
 30
0.0
 10
380.847033
 20
33.049789
 30
0.0
 10
379.417539
 20
33.049789
 30
0.0
 10
378.257283
 20
32.379915
 30
0.0
  0
SPLINE
  5
177
100
AcDbEntity
  8
trous
 62
7
100
AcDbSpline
 70
8
 71
3
 72
8
 73
4
 74
0
 40
0
 40
0
 40
0
 40
0
 40
1
 40
1
 40
1
 40
1
 10
378.257283
 20
32.379915
 30
0.0
 10
377.097027
 20
31.710041
 30
0.0
 10
376.382280
 20
30.472062
 30
0.0
 10
376.382280
 20
29.132314
 30
0.0
  0
SPLINE
  5
178
100
AcDbEntity
  8
trous
 62
7
100
AcDbSpline
 70
8
 71
3
 72
8
 73
4
 74
0
 40
0
 40
0
 40
0
 40
0
 40
1
 40
1
 40
1
 40
1
 10
376.382280
 20
29.132314
 30
0.0
 10
376.382280
 20
27.792566
 30
0.0
 10
377.097027
 20
26.554588
 30
0.0
 10
378.257283
 20
25.884714
 30
0.0
  0
SPLINE
  5
179
100
AcDbEntity
  8
trous
 62
7
100
AcDbSpline
 70
8
 71
3
 72
8
 73
4
 74
0
 40
0
 40
0
 40
0
 40
0
 40
1
 40
1
 40
1
 40
1
 10
378.257283
 20
25.884714
 30
0.0
 10
379.417539
 20
25.214840
 30
0.0
 10
380.847033
 20
25.214840
 30
0.0
 10
382.007289
 20
25.884714
 30
0.0
  0
SPLINE
  5
17a
100
AcDbEntity
  8
trous
 62
7
100
AcDbSpline
 70
8
 71
3
 72
8
 73
4
 74
0
 40
0
 40
0
 40
0
 40
0
 40
1
 40
1
 40
1
 40
1
 10
382.007289
 20
25.884714
 30
0.0
 10
383.167544
 20
26.554588
 30
0.0
 10
383.882291
 20
27.792566
 30
0.0
 10
383.882291
 20
29.132314
 30
0.0
  0
LWPOLYLINE
  5
17b
100
AcDbEntity
  8
trous
 62
7
100
AcDbPolyline
 90
1
 70
1
 10
419.882294
 20
29.132314
 30
0.0
  0
SPLINE
  5
17c
100
AcDbEntity
  8
trous
 62
7
100
AcDbSpline
 70
8
 71
3
 72
8
 73
4
 74
0
 40
0
 40
0
 40
0
 40
0
 40
1
 40
1
 40
1
 40
1
 10
383.882291
 20
101.132305
 30
0.0
 10
383.882291
 20
102.472053
 30
0.0
 10
383.167544
 20
103.710032
 30
0.0
 10
382.007289
 20
104.379906
 30
0.0
  0
SPLINE
  5
17d
100
AcDbEntity
  8
trous
 62
7
100
AcDbSpline
 70
8
 71
3
 72
8
 73
4
 74
0
 40
0
 40
0
 40
0
 40
0
 40
1
 40
1
 40
1
 40
1
 10
382.007289
 20
104.379906
 30
0.0
 10
380.847033
 20
105.049780
 30
0.0
 10
379.417539
 20
105.049780
 30
0.0
 10
378.257283
 20
104.379906
 30
0.0
  0
SPLINE
  5
17e
100
AcDbEntity
  8
trous
 62
7
100
AcDbSpline
 70
8
 71
3
 72
8
 73
4
 74
0
 40
0
 40
0
 40
0
 40
0
 40
1
 40
1
 40
1
 40
1
 10
378.257283
 20
104.379906
 30
0.0
 10
377.097027
 20
103.710032
 30
0.0
 10
376.382280
 20
102.472053
 30
0.0
 10
376.382280
 20
101.132305
 30
0.0
  0
SPLINE
  5
17f
100
AcDbEntity
  8
trous
 62
7
100
AcDbSpline
 70
8
 71
3
 72
8
 73
4
 74
0
 40
0
 40
0
 40
0
 40
0
 40
1
 40
1
 40
1
 40
1
 10
376.382280
 20
101.132305
 30
0.0
 10
376.382280
 20
99.792557
 30
0.0
 10
377.097027
 20
98.554579
 30
0.0
 10
378.257283
 20
97.884705
 30
0.0
  0
SPLINE
  5
180
100
AcDbEntity
  8
trous
 62
7
100
AcDbSpline
 70
8
 71
3
 72
8
 73
4
 74
0
 40
0
 40
0
 40
0
 40
0
 40
1
 40
1
 40
1
 40
1
 10
378.257283
 20
97.884705
 30
0.0
 10
379.417539
 20
97.214831
 30
0.0
 10
380.847033
 20
97.214831
 30
0.0
 10
382.007289
 20
97.884705
 30
0.0
  0
SPLINE
  5
181
100
AcDbEntity
  8
trous
 62
7
100
AcDbSpline
 70
8
 71
3
 72
8
 73
4
 74
0
 40
0
 40
0
 40
0
 40
0
 40
1
 40
1
 40
1
 40
1
 10
382.007289
 20
97.884705
 30
0.0
 10
383.167544
 20
98.554579
 30
0.0
 10
383.882291
 20
99.792557
 30
0.0
 10
383.882291
 20
101.132305
 30
0.0
  0
LWPOLYLINE
  5
182
100
AcDbEntity
  8
trous
 62
7
100
AcDbPolyline
 90
1
 70
1
 10
383.882291
 20
29.132314
 30
0.0
  0
SPLINE
  5
183
100
AcDbEntity
  8
trous
 62
7
100
AcDbSpline
 70
8
 71
3
 72
8
 73
4
 74
0
 40
0
 40
0
 40
0
 40
0
 40
1
 40
1
 40
1
 40
1
 10
459.882293
 20
101.132305
 30
0.0
 10
459.882293
 20
102.472053
 30
0.0
 10
459.167546
 20
103.710032
 30
0.0
 10
458.007290
 20
104.379906
 30
0.0
  0
SPLINE
  5
184
100
AcDbEntity
  8
trous
 62
7
100
AcDbSpline
 70
8
 71
3
 72
8
 73
4
 74
0
 40
0
 40
0
 40
0
 40
0
 40
1
 40
1
 40
1
 40
1
 10
458.007290
 20
104.379906
 30
0.0
 10
456.847034
 20
105.049780
 30
0.0
 10
455.417540
 20
105.049780
 30
0.0
 10
454.257284
 20
104.379906
 30
0.0
  0
SPLINE
  5
185
100
AcDbEntity
  8
trous
 62
7
100
AcDbSpline
 70
8
 71
3
 72
8
 73
4
 74
0
 40
0
 40
0
 40
0
 40
0
 40
1
 40
1
 40
1
 40
1
 10
454.257284
 20
104.379906
 30
0.0
 10
453.097029
 20
103.710032
 30
0.0
 10
452.382281
 20
102.472053
 30
0.0
 10
452.382281
 20
101.132305
 30
0.0
  0
SPLINE
  5
186
100
AcDbEntity
  8
trous
 62
7
100
AcDbSpline
 70
8
 71
3
 72
8
 73
4
 74
0
 40
0
 40
0
 40
0
 40
0
 40
1
 40
1
 40
1
 40
1
 10
452.382281
 20
101.132305
 30
0.0
 10
452.382281
 20
99.792557
 30
0.0
 10
453.097028
 20
98.554579
 30
0.0
 10
454.257284
 20
97.884705
 30
0.0
  0
SPLINE
  5
187
100
AcDbEntity
  8
trous
 62
7
100
AcDbSpline
 70
8
 71
3
 72
8
 73
4
 74
0
 40
0
 40
0
 40
0
 40
0
 40
1
 40
1
 40
1
 40
1
 10
454.257284
 20
97.884705
 30
0.0
 10
455.417540
 20
97.214831
 30
0.0
 10
456.847034
 20
97.214831
 30
0.0
 10
458.007290
 20
97.884705
 30
0.0
  0
SPLINE
  5
188
100
AcDbEntity
  8
trous
 62
7
100
AcDbSpline
 70
8
 71
3
 72
8
 73
4
 74
0
 40
0
 40
0
 40
0
 40
0
 40
1
 40
1
 40
1
 40
1
 10
458.007290
 20
97.884705
 30
0.0
 10
459.167546
 20
98.554579
 30
0.0
 10
459.882293
 20
99.792557
 30
0.0
 10
459.882293
 20
101.132305
 30
0.0
  0
LWPOLYLINE
  5
189
100
AcDbEntity
  8
trous
 62
7
100
AcDbPolyline
 90
1
 70
1
 10
383.882291
 20
101.132305
 30
0.0
  0
SPLINE
  5
18a
100
AcDbEntity
  8
trous
 62
7
100
AcDbSpline
 70
8
 71
3
 72
8
 73
4
 74
0
 40
0
 40
0
 40
0
 40
0
 40
1
 40
1
 40
1
 40
1
 10
459.882293
 20
65.132306
 30
0.0
 10
459.882293
 20
66.472054
 30
0.0
 10
459.167546
 20
67.710032
 30
0.0
 10
458.007290
 20
68.379906
 30
0.0
  0
SPLINE
  5
18b
100
AcDbEntity
  8
trous
 62
7
100
AcDbSpline
 70
8
 71
3
 72
8
 73
4
 74
0
 40
0
 40
0
 40
0
 40
0
 40
1
 40
1
 40
1
 40
1
 10
458.007290
 20
68.379906
 30
0.0
 10
456.847034
 20
69.049780
 30
0.0
 10
455.417540
 20
69.049780
 30
0.0
 10
454.257284
 20
68.379906
 30
0.0
  0
SPLINE
  5
18c
100
AcDbEntity
  8
trous
 62
7
100
AcDbSpline
 70
8
 71
3
 72
8
 73
4
 74
0
 40
0
 40
0
 40
0
 40
0
 40
1
 40
1
 40
1
 40
1
 10
454.257284
 20
68.379906
 30
0.0
 10
453.097029
 20
67.710032
 30
0.0
 10
452.382281
 20
66.472054
 30
0.0
 10
452.382281
 20
65.132306
 30
0.0
  0
SPLINE
  5
18d
100
AcDbEntity
  8
trous
 62
7
100
AcDbSpline
 70
8
 71
3
 72
8
 73
4
 74
0
 40
0
 40
0
 40
0
 40
0
 40
1
 40
1
 40
1
 40
1
 10
452.382281
 20
65.132306
 30
0.0
 10
452.382281
 20
63.792558
 30
0.0
 10
453.097028
 20
62.554579
 30
0.0
 10
454.257284
 20
61.884705
 30
0.0
  0
SPLINE
  5
18e
100
AcDbEntity
  8
trous
 62
7
100
AcDbSpline
 70
8
 71
3
 72
8
 73
4
 74
0
 40
0
 40
0
 40
0
 40
0
 40
1
 40
1
 40
1
 40
1
 10
454.257284
 20
61.884705
 30
0.0
 10
455.417540
 20
61.214831
 30
0.0
 10
456.847034
 20
61.214831
 30
0.0
 10
458.007290
 20
61.884705
 30
0.0
  0
SPLINE
  5
18f
100
AcDbEntity
  8
trous
 62
7
100
AcDbSpline
 70
8
 71
3
 72
8
 73
4
 74
0
 40
0
 40
0
 40
0
 40
0
 40
1
 40
1
 40
1
 40
1
 10
458.007290
 20
61.884705
 30
0.0
 10
459.167546
 20
62.554579
 30
0.0
 10
459.882293
 20
63.792558
 30
0.0
 10
459.882293
 20
65.132306
 30
0.0
  0
LWPOLYLINE
  5
190
100
AcDbEntity
  8
trous
 62
7
100
AcDbPolyline
 90
1
 70
1
 10
459.882293
 20
101.132305
 30
0.0
  0
SPLINE
  5
191
100
AcDbEntity
  8
trous
 62
7
100
AcDbSpline
 70
8
 71
3
 72
8
 73
4
 74
0
 40
0
 40
0
 40
0
 40
0
 40
1
 40
1
 40
1
 40
1
 10
383.882291
 20
65.132306
 30
0.0
 10
383.882291
 20
66.472054
 30
0.0
 10
383.167544
 20
67.710032
 30
0.0
 10
382.007289
 20
68.379906
 30
0.0
  0
SPLINE
  5
192
100
AcDbEntity
  8
trous
 62
7
100
AcDbSpline
 70
8
 71
3
 72
8
 73
4
 74
0
 40
0
 40
0
 40
0
 40
0
 40
1
 40
1
 40
1
 40
1
 10
382.007289
 20
68.379906
 30
0.0
 10
380.847033
 20
69.049780
 30
0.0
 10
379.417539
 20
69.049780
 30
0.0
 10
378.257283
 20
68.379906
 30
0.0
  0
SPLINE
  5
193
100
AcDbEntity
  8
trous
 62
7
100
AcDbSpline
 70
8
 71
3
 72
8
 73
4
 74
0
 40
0
 40
0
 40
0
 40
0
 40
1
 40
1
 40
1
 40
1
 10
378.257283
 20
68.379906
 30
0.0
 10
377.097027
 20
67.710032
 30
0.0
 10
376.382280
 20
66.472054
 30
0.0
 10
376.382280
 20
65.132306
 30
0.0
  0
SPLINE
  5
194
100
AcDbEntity
  8
trous
 62
7
100
AcDbSpline
 70
8
 71
3
 72
8
 73
4
 74
0
 40
0
 40
0
 40
0
 40
0
 40
1
 40
1
 40
1
 40
1
 10
376.382280
 20
65.132306
 30
0.0
 10
376.382280
 20
63.792558
 30
0.0
 10
377.097027
 20
62.554580
 30
0.0
 10
378.257283
 20
61.884706
 30
0.0
  0
SPLINE
  5
195
100
AcDbEntity
  8
trous
 62
7
100
AcDbSpline
 70
8
 71
3
 72
8
 73
4
 74
0
 40
0
 40
0
 40
0
 40
0
 40
1
 40
1
 40
1
 40
1
 10
378.257283
 20
61.884706
 30
0.0
 10
379.417539
 20
61.214832
 30
0.0
 10
380.847033
 20
61.214832
 30
0.0
 10
382.007289
 20
61.884706
 30
0.0
  0
SPLINE
  5
196
100
AcDbEntity
  8
trous
 62
7
100
AcDbSpline
 70
8
 71
3
 72
8
 73
4
 74
0
 40
0
 40
0
 40
0
 40
0
 40
1
 40
1
 40
1
 40
1
 10
382.007289
 20
61.884706
 30
0.0
 10
383.167544
 20
62.554580
 30
0.0
 10
383.882291
 20
63.792558
 30
0.0
 10
383.882291
 20
65.132306
 30
0.0
  0
LWPOLYLINE
  5
197
100
AcDbEntity
  8
trous
 62
7
100
AcDbPolyline
 90
1
 70
1
 10
459.882293
 20
65.132306
 30
0.0
  0
SPLINE
  5
198
100
AcDbEntity
  8
trous
 62
7
100
AcDbSpline
 70
8
 71
3
 72
8
 73
4
 74
0
 40
0
 40
0
 40
0
 40
0
 40
1
 40
1
 40
1
 40
1
 10
347.882289
 20
101.132305
 30
0.0
 10
347.882289
 20
102.472053
 30
0.0
 10
347.167542
 20
103.710032
 30
0.0
 10
346.007287
 20
104.379906
 30
0.0
  0
SPLINE
  5
199
100
AcDbEntity
  8
trous
 62
7
100
AcDbSpline
 70
8
 71
3
 72
8
 73
4
 74
0
 40
0
 40
0
 40
0
 40
0
 40
1
 40
1
 40
1
 40
1
 10
346.007287
 20
104.379906
 30
0.0
 10
344.847031
 20
105.049780
 30
0.0
 10
343.417537
 20
105.049780
 30
0.0
 10
342.257281
 20
104.379906
 30
0.0
  0
SPLINE
  5
19a
100
AcDbEntity
  8
trous
 62
7
100
AcDbSpline
 70
8
 71
3
 72
8
 73
4
 74
0
 40
0
 40
0
 40
0
 40
0
 40
1
 40
1
 40
1
 40
1
 10
342.257281
 20
104.379906
 30
0.0
 10
341.097025
 20
103.710032
 30
0.0
 10
340.382278
 20
102.472053
 30
0.0
 10
340.382278
 20
101.132305
 30
0.0
  0
SPLINE
  5
19b
100
AcDbEntity
  8
trous
 62
7
100
AcDbSpline
 70
8
 71
3
 72
8
 73
4
 74
0
 40
0
 40
0
 40
0
 40
0
 40
1
 40
1
 40
1
 40
1
 10
340.382278
 20
101.132305
 30
0.0
 10
340.382278
 20
99.792557
 30
0.0
 10
341.097025
 20
98.554579
 30
0.0
 10
342.257281
 20
97.884705
 30
0.0
  0
SPLINE
  5
19c
100
AcDbEntity
  8
trous
 62
7
100
AcDbSpline
 70
8
 71
3
 72
8
 73
4
 74
0
 40
0
 40
0
 40
0
 40
0
 40
1
 40
1
 40
1
 40
1
 10
342.257281
 20
97.884705
 30
0.0
 10
343.417537
 20
97.214831
 30
0.0
 10
344.847031
 20
97.214831
 30
0.0
 10
346.007287
 20
97.884705
 30
0.0
  0
SPLINE
  5
19d
100
AcDbEntity
  8
trous
 62
7
100
AcDbSpline
 70
8
 71
3
 72
8
 73
4
 74
0
 40
0
 40
0
 40
0
 40
0
 40
1
 40
1
 40
1
 40
1
 10
346.007287
 20
97.884705
 30
0.0
 10
347.167542
 20
98.554579
 30
0.0
 10
347.882289
 20
99.792557
 30
0.0
 10
347.882289
 20
101.132305
 30
0.0
  0
LWPOLYLINE
  5
19e
100
AcDbEntity
  8
trous
 62
7
100
AcDbPolyline
 90
1
 70
1
 10
383.882291
 20
65.132306
 30
0.0
  0
SPLINE
  5
19f
100
AcDbEntity
  8
trous
 62
7
100
AcDbSpline
 70
8
 71
3
 72
8
 73
4
 74
0
 40
0
 40
0
 40
0
 40
0
 40
1
 40
1
 40
1
 40
1
 10
347.882289
 20
65.132306
 30
0.0
 10
347.882289
 20
66.472054
 30
0.0
 10
347.167542
 20
67.710032
 30
0.0
 10
346.007287
 20
68.379906
 30
0.0
  0
SPLINE
  5
1a0
100
AcDbEntity
  8
trous
 62
7
100
AcDbSpline
 70
8
 71
3
 72
8
 73
4
 74
0
 40
0
 40
0
 40
0
 40
0
 40
1
 40
1
 40
1
 40
1
 10
346.007287
 20
68.379906
 30
0.0
 10
344.847031
 20
69.049780
 30
0.0
 10
343.417537
 20
69.049780
 30
0.0
 10
342.257281
 20
68.379906
 30
0.0
  0
SPLINE
  5
1a1
100
AcDbEntity
  8
trous
 62
7
100
AcDbSpline
 70
8
 71
3
 72
8
 73
4
 74
0
 40
0
 40
0
 40
0
 40
0
 40
1
 40
1
 40
1
 40
1
 10
342.257281
 20
68.379906
 30
0.0
 10
341.097025
 20
67.710032
 30
0.0
 10
340.382278
 20
66.472054
 30
0.0
 10
340.382278
 20
65.132306
 30
0.0
  0
SPLINE
  5
1a2
100
AcDbEntity
  8
trous
 62
7
100
AcDbSpline
 70
8
 71
3
 72
8
 73
4
 74
0
 40
0
 40
0
 40
0
 40
0
 40
1
 40
1
 40
1
 40
1
 10
340.382278
 20
65.132306
 30
0.0
 10
340.382278
 20
63.792558
 30
0.0
 10
341.097025
 20
62.554580
 30
0.0
 10
342.257281
 20
61.884706
 30
0.0
  0
SPLINE
  5
1a3
100
AcDbEntity
  8
trous
 62
7
100
AcDbSpline
 70
8
 71
3
 72
8
 73
4
 74
0
 40
0
 40
0
 40
0
 40
0
 40
1
 40
1
 40
1
 40
1
 10
342.257281
 20
61.884706
 30
0.0
 10
343.417537
 20
61.214832
 30
0.0
 10
344.847031
 20
61.214832
 30
0.0
 10
346.007287
 20
61.884706
 30
0.0
  0
SPLINE
  5
1a4
100
AcDbEntity
  8
trous
 62
7
100
AcDbSpline
 70
8
 71
3
 72
8
 73
4
 74
0
 40
0
 40
0
 40
0
 40
0
 40
1
 40
1
 40
1
 40
1
 10
346.007287
 20
61.884706
 30
0.0
 10
347.167542
 20
62.554580
 30
0.0
 10
347.882289
 20
63.792558
 30
0.0
 10
347.882289
 20
65.132306
 30
0.0
  0
LWPOLYLINE
  5
1a5
100
AcDbEntity
  8
trous
 62
7
100
AcDbPolyline
 90
1
 70
1
 10
347.882289
 20
101.132305
 30
0.0
  0
SPLINE
  5
1a6
100
AcDbEntity
  8
trous
 62
7
100
AcDbSpline
 70
8
 71
3
 72
8
 73
4
 74
0
 40
0
 40
0
 40
0
 40
0
 40
1
 40
1
 40
1
 40
1
 10
347.882289
 20
29.132314
 30
0.0
 10
347.882289
 20
30.472062
 30
0.0
 10
347.167542
 20
31.710041
 30
0.0
 10
346.007287
 20
32.379915
 30
0.0
  0
SPLINE
  5
1a7
100
AcDbEntity
  8
trous
 62
7
100
AcDbSpline
 70
8
 71
3
 72
8
 73
4
 74
0
 40
0
 40
0
 40
0
 40
0
 40
1
 40
1
 40
1
 40
1
 10
346.007287
 20
32.379915
 30
0.0
 10
344.847031
 20
33.049789
 30
0.0
 10
343.417537
 20
33.049789
 30
0.0
 10
342.257281
 20
32.379915
 30
0.0
  0
SPLINE
  5
1a8
100
AcDbEntity
  8
trous
 62
7
100
AcDbSpline
 70
8
 71
3
 72
8
 73
4
 74
0
 40
0
 40
0
 40
0
 40
0
 40
1
 40
1
 40
1
 40
1
 10
342.257281
 20
32.379915
 30
0.0
 10
341.097025
 20
31.710041
 30
0.0
 10
340.382278
 20
30.472062
 30
0.0
 10
340.382278
 20
29.132314
 30
0.0
  0
SPLINE
  5
1a9
100
AcDbEntity
  8
trous
 62
7
100
AcDbSpline
 70
8
 71
3
 72
8
 73
4
 74
0
 40
0
 40
0
 40
0
 40
0
 40
1
 40
1
 40
1
 40
1
 10
340.382278
 20
29.132314
 30
0.0
 10
340.382278
 20
27.792566
 30
0.0
 10
341.097025
 20
26.554588
 30
0.0
 10
342.257281
 20
25.884714
 30
0.0
  0
SPLINE
  5
1aa
100
AcDbEntity
  8
trous
 62
7
100
AcDbSpline
 70
8
 71
3
 72
8
 73
4
 74
0
 40
0
 40
0
 40
0
 40
0
 40
1
 40
1
 40
1
 40
1
 10
342.257281
 20
25.884714
 30
0.0
 10
343.417537
 20
25.214840
 30
0.0
 10
344.847031
 20
25.214840
 30
0.0
 10
346.007287
 20
25.884714
 30
0.0
  0
SPLINE
  5
1ab
100
AcDbEntity
  8
trous
 62
7
100
AcDbSpline
 70
8
 71
3
 72
8
 73
4
 74
0
 40
0
 40
0
 40
0
 40
0
 40
1
 40
1
 40
1
 40
1
 10
346.007287
 20
25.884714
 30
0.0
 10
347.167542
 20
26.554588
 30
0.0
 10
347.882289
 20
27.792566
 30
0.0
 10
347.882289
 20
29.132314
 30
0.0
  0
LWPOLYLINE
  5
1ac
100
AcDbEntity
  8
trous
 62
7
100
AcDbPolyline
 90
1
 70
1
 10
347.882289
 20
65.132306
 30
0.0
  0
SPLINE
  5
1ad
100
AcDbEntity
  8
trous
 62
7
100
AcDbSpline
 70
8
 71
3
 72
8
 73
4
 74
0
 40
0
 40
0
 40
0
 40
0
 40
1
 40
1
 40
1
 40
1
 10
311.882287
 20
29.132314
 30
0.0
 10
311.882287
 20
30.472062
 30
0.0
 10
311.167540
 20
31.710041
 30
0.0
 10
310.007284
 20
32.379915
 30
0.0
  0
SPLINE
  5
1ae
100
AcDbEntity
  8
trous
 62
7
100
AcDbSpline
 70
8
 71
3
 72
8
 73
4
 74
0
 40
0
 40
0
 40
0
 40
0
 40
1
 40
1
 40
1
 40
1
 10
310.007284
 20
32.379915
 30
0.0
 10
308.847029
 20
33.049789
 30
0.0
 10
307.417535
 20
33.049789
 30
0.0
 10
306.257279
 20
32.379915
 30
0.0
  0
SPLINE
  5
1af
100
AcDbEntity
  8
trous
 62
7
100
AcDbSpline
 70
8
 71
3
 72
8
 73
4
 74
0
 40
0
 40
0
 40
0
 40
0
 40
1
 40
1
 40
1
 40
1
 10
306.257279
 20
32.379915
 30
0.0
 10
305.097023
 20
31.710041
 30
0.0
 10
304.382276
 20
30.472062
 30
0.0
 10
304.382276
 20
29.132314
 30
0.0
  0
SPLINE
  5
1b0
100
AcDbEntity
  8
trous
 62
7
100
AcDbSpline
 70
8
 71
3
 72
8
 73
4
 74
0
 40
0
 40
0
 40
0
 40
0
 40
1
 40
1
 40
1
 40
1
 10
304.382276
 20
29.132314
 30
0.0
 10
304.382276
 20
27.792566
 30
0.0
 10
305.097023
 20
26.554588
 30
0.0
 10
306.257279
 20
25.884714
 30
0.0
  0
SPLINE
  5
1b1
100
AcDbEntity
  8
trous
 62
7
100
AcDbSpline
 70
8
 71
3
 72
8
 73
4
 74
0
 40
0
 40
0
 40
0
 40
0
 40
1
 40
1
 40
1
 40
1
 10
306.257279
 20
25.884714
 30
0.0
 10
307.417535
 20
25.214840
 30
0.0
 10
308.847029
 20
25.214840
 30
0.0
 10
310.007284
 20
25.884714
 30
0.0
  0
SPLINE
  5
1b2
100
AcDbEntity
  8
trous
 62
7
100
AcDbSpline
 70
8
 71
3
 72
8
 73
4
 74
0
 40
0
 40
0
 40
0
 40
0
 40
1
 40
1
 40
1
 40
1
 10
310.007284
 20
25.884714
 30
0.0
 10
311.167540
 20
26.554588
 30
0.0
 10
311.882287
 20
27.792566
 30
0.0
 10
311.882287
 20
29.132314
 30
0.0
  0
LWPOLYLINE
  5
1b3
100
AcDbEntity
  8
trous
 62
7
100
AcDbPolyline
 90
1
 70
1
 10
347.882289
 20
29.132314
 30
0.0
  0
SPLINE
  5
1b4
100
AcDbEntity
  8
trous
 62
7
100
AcDbSpline
 70
8
 71
3
 72
8
 73
4
 74
0
 40
0
 40
0
 40
0
 40
0
 40
1
 40
1
 40
1
 40
1
 10
311.882287
 20
65.132306
 30
0.0
 10
311.882287
 20
66.472054
 30
0.0
 10
311.167540
 20
67.710032
 30
0.0
 10
310.007284
 20
68.379906
 30
0.0
  0
SPLINE
  5
1b5
100
AcDbEntity
  8
trous
 62
7
100
AcDbSpline
 70
8
 71
3
 72
8
 73
4
 74
0
 40
0
 40
0
 40
0
 40
0
 40
1
 40
1
 40
1
 40
1
 10
310.007284
 20
68.379906
 30
0.0
 10
308.847029
 20
69.049780
 30
0.0
 10
307.417535
 20
69.049780
 30
0.0
 10
306.257279
 20
68.379906
 30
0.0
  0
SPLINE
  5
1b6
100
AcDbEntity
  8
trous
 62
7
100
AcDbSpline
 70
8
 71
3
 72
8
 73
4
 74
0
 40
0
 40
0
 40
0
 40
0
 40
1
 40
1
 40
1
 40
1
 10
306.257279
 20
68.379906
 30
0.0
 10
305.097023
 20
67.710032
 30
0.0
 10
304.382276
 20
66.472054
 30
0.0
 10
304.382276
 20
65.132306
 30
0.0
  0
SPLINE
  5
1b7
100
AcDbEntity
  8
trous
 62
7
100
AcDbSpline
 70
8
 71
3
 72
8
 73
4
 74
0
 40
0
 40
0
 40
0
 40
0
 40
1
 40
1
 40
1
 40
1
 10
304.382276
 20
65.132306
 30
0.0
 10
304.382276
 20
63.792558
 30
0.0
 10
305.097023
 20
62.554580
 30
0.0
 10
306.257279
 20
61.884706
 30
0.0
  0
SPLINE
  5
1b8
100
AcDbEntity
  8
trous
 62
7
100
AcDbSpline
 70
8
 71
3
 72
8
 73
4
 74
0
 40
0
 40
0
 40
0
 40
0
 40
1
 40
1
 40
1
 40
1
 10
306.257279
 20
61.884706
 30
0.0
 10
307.417535
 20
61.214832
 30
0.0
 10
308.847029
 20
61.214832
 30
0.0
 10
310.007284
 20
61.884706
 30
0.0
  0
SPLINE
  5
1b9
100
AcDbEntity
  8
trous
 62
7
100
AcDbSpline
 70
8
 71
3
 72
8
 73
4
 74
0
 40
0
 40
0
 40
0
 40
0
 40
1
 40
1
 40
1
 40
1
 10
310.007284
 20
61.884706
 30
0.0
 10
311.167540
 20
62.554580
 30
0.0
 10
311.882287
 20
63.792558
 30
0.0
 10
311.882287
 20
65.132306
 30
0.0
  0
LWPOLYLINE
  5
1ba
100
AcDbEntity
  8
trous
 62
7
100
AcDbPolyline
 90
1
 70
1
 10
311.882287
 20
29.132314
 30
0.0
  0
SPLINE
  5
1bb
100
AcDbEntity
  8
trous
 62
7
100
AcDbSpline
 70
8
 71
3
 72
8
 73
4
 74
0
 40
0
 40
0
 40
0
 40
0
 40
1
 40
1
 40
1
 40
1
 10
311.882287
 20
101.132305
 30
0.0
 10
311.882287
 20
102.472053
 30
0.0
 10
311.167540
 20
103.710032
 30
0.0
 10
310.007284
 20
104.379906
 30
0.0
  0
SPLINE
  5
1bc
100
AcDbEntity
  8
trous
 62
7
100
AcDbSpline
 70
8
 71
3
 72
8
 73
4
 74
0
 40
0
 40
0
 40
0
 40
0
 40
1
 40
1
 40
1
 40
1
 10
310.007284
 20
104.379906
 30
0.0
 10
308.847029
 20
105.049780
 30
0.0
 10
307.417535
 20
105.049780
 30
0.0
 10
306.257279
 20
104.379906
 30
0.0
  0
SPLINE
  5
1bd
100
AcDbEntity
  8
trous
 62
7
100
AcDbSpline
 70
8
 71
3
 72
8
 73
4
 74
0
 40
0
 40
0
 40
0
 40
0
 40
1
 40
1
 40
1
 40
1
 10
306.257279
 20
104.379906
 30
0.0
 10
305.097023
 20
103.710032
 30
0.0
 10
304.382276
 20
102.472053
 30
0.0
 10
304.382276
 20
101.132305
 30
0.0
  0
SPLINE
  5
1be
100
AcDbEntity
  8
trous
 62
7
100
AcDbSpline
 70
8
 71
3
 72
8
 73
4
 74
0
 40
0
 40
0
 40
0
 40
0
 40
1
 40
1
 40
1
 40
1
 10
304.382276
 20
101.132305
 30
0.0
 10
304.382276
 20
99.792557
 30
0.0
 10
305.097023
 20
98.554579
 30
0.0
 10
306.257279
 20
97.884705
 30
0.0
  0
SPLINE
  5
1bf
100
AcDbEntity
  8
trous
 62
7
100
AcDbSpline
 70
8
 71
3
 72
8
 73
4
 74
0
 40
0
 40
0
 40
0
 40
0
 40
1
 40
1
 40
1
 40
1
 10
306.257279
 20
97.884705
 30
0.0
 10
307.417535
 20
97.214831
 30
0.0
 10
308.847029
 20
97.214831
 30
0.0
 10
310.007284
 20
97.884705
 30
0.0
  0
SPLINE
  5
1c0
100
AcDbEntity
  8
trous
 62
7
100
AcDbSpline
 70
8
 71
3
 72
8
 73
4
 74
0
 40
0
 40
0
 40
0
 40
0
 40
1
 40
1
 40
1
 40
1
 10
310.007284
 20
97.884705
 30
0.0
 10
311.167540
 20
98.554579
 30
0.0
 10
311.882287
 20
99.792557
 30
0.0
 10
311.882287
 20
101.132305
 30
0.0
  0
LWPOLYLINE
  5
1c1
100
AcDbEntity
  8
trous
 62
7
100
AcDbPolyline
 90
1
 70
1
 10
311.882287
 20
65.132306
 30
0.0
  0
SPLINE
  5
1c2
100
AcDbEntity
  8
trous
 62
7
100
AcDbSpline
 70
8
 71
3
 72
8
 73
4
 74
0
 40
0
 40
0
 40
0
 40
0
 40
1
 40
1
 40
1
 40
1
 10
271.882288
 20
83.132304
 30
0.0
 10
271.884541
 20
84.473549
 30
0.0
 10
271.170289
 20
85.713876
 30
0.0
 10
270.009111
 20
86.385149
 30
0.0
  0
SPLINE
  5
1c3
100
AcDbEntity
  8
trous
 62
7
100
AcDbSpline
 70
8
 71
3
 72
8
 73
4
 74
0
 40
0
 40
0
 40
0
 40
0
 40
1
 40
1
 40
1
 40
1
 10
270.009111
 20
86.385149
 30
0.0
 10
268.847933
 20
87.056423
 30
0.0
 10
267.416652
 20
87.056423
 30
0.0
 10
266.255474
 20
86.385149
 30
0.0
  0
SPLINE
  5
1c4
100
AcDbEntity
  8
trous
 62
7
100
AcDbSpline
 70
8
 71
3
 72
8
 73
4
 74
0
 40
0
 40
0
 40
0
 40
0
 40
1
 40
1
 40
1
 40
1
 10
266.255474
 20
86.385149
 30
0.0
 10
265.094296
 20
85.713876
 30
0.0
 10
264.380044
 20
84.473549
 30
0.0
 10
264.382298
 20
83.132304
 30
0.0
  0
SPLINE
  5
1c5
100
AcDbEntity
  8
trous
 62
7
100
AcDbSpline
 70
8
 71
3
 72
8
 73
4
 74
0
 40
0
 40
0
 40
0
 40
0
 40
1
 40
1
 40
1
 40
1
 10
264.382298
 20
83.132304
 30
0.0
 10
264.380044
 20
81.791059
 30
0.0
 10
265.094296
 20
80.550733
 30
0.0
 10
266.255474
 20
79.879459
 30
0.0
  0
SPLINE
  5
1c6
100
AcDbEntity
  8
trous
 62
7
100
AcDbSpline
 70
8
 71
3
 72
8
 73
4
 74
0
 40
0
 40
0
 40
0
 40
0
 40
1
 40
1
 40
1
 40
1
 10
266.255474
 20
79.879459
 30
0.0
 10
267.416652
 20
79.208186
 30
0.0
 10
268.847933
 20
79.208186
 30
0.0
 10
270.009111
 20
79.879459
 30
0.0
  0
SPLINE
  5
1c7
100
AcDbEntity
  8
trous
 62
7
100
AcDbSpline
 70
8
 71
3
 72
8
 73
4
 74
0
 40
0
 40
0
 40
0
 40
0
 40
1
 40
1
 40
1
 40
1
 10
270.009111
 20
79.879459
 30
0.0
 10
271.170289
 20
80.550733
 30
0.0
 10
271.884541
 20
81.791059
 30
0.0
 10
271.882288
 20
83.132304
 30
0.0
  0
LWPOLYLINE
  5
1c8
100
AcDbEntity
  8
trous
 62
7
100
AcDbPolyline
 90
1
 70
1
 10
311.882287
 20
101.132305
 30
0.0
  0
SPLINE
  5
1c9
100
AcDbEntity
  8
trous
 62
7
100
AcDbSpline
 70
8
 71
3
 72
8
 73
4
 74
0
 40
0
 40
0
 40
0
 40
0
 40
1
 40
1
 40
1
 40
1
 10
271.882288
 20
47.132305
 30
0.0
 10
271.884541
 20
48.473550
 30
0.0
 10
271.170289
 20
49.713876
 30
0.0
 10
270.009111
 20
50.385150
 30
0.0
  0
SPLINE
  5
1ca
100
AcDbEntity
  8
trous
 62
7
100
AcDbSpline
 70
8
 71
3
 72
8
 73
4
 74
0
 40
0
 40
0
 40
0
 40
0
 40
1
 40
1
 40
1
 40
1
 10
270.009111
 20
50.385150
 30
0.0
 10
268.847933
 20
51.056423
 30
0.0
 10
267.416652
 20
51.056423
 30
0.0
 10
266.255474
 20
50.385150
 30
0.0
  0
SPLINE
  5
1cb
100
AcDbEntity
  8
trous
 62
7
100
AcDbSpline
 70
8
 71
3
 72
8
 73
4
 74
0
 40
0
 40
0
 40
0
 40
0
 40
1
 40
1
 40
1
 40
1
 10
266.255474
 20
50.385150
 30
0.0
 10
265.094296
 20
49.713876
 30
0.0
 10
264.380044
 20
48.473550
 30
0.0
 10
264.382298
 20
47.132305
 30
0.0
  0
SPLINE
  5
1cc
100
AcDbEntity
  8
trous
 62
7
100
AcDbSpline
 70
8
 71
3
 72
8
 73
4
 74
0
 40
0
 40
0
 40
0
 40
0
 40
1
 40
1
 40
1
 40
1
 10
264.382298
 20
47.132305
 30
0.0
 10
264.380044
 20
45.791060
 30
0.0
 10
265.094296
 20
44.550734
 30
0.0
 10
266.255474
 20
43.879460
 30
0.0
  0
SPLINE
  5
1cd
100
AcDbEntity
  8
trous
 62
7
100
AcDbSpline
 70
8
 71
3
 72
8
 73
4
 74
0
 40
0
 40
0
 40
0
 40
0
 40
1
 40
1
 40
1
 40
1
 10
266.255474
 20
43.879460
 30
0.0
 10
267.416652
 20
43.208186
 30
0.0
 10
268.847933
 20
43.208186
 30
0.0
 10
270.009111
 20
43.879460
 30
0.0
  0
SPLINE
  5
1ce
100
AcDbEntity
  8
trous
 62
7
100
AcDbSpline
 70
8
 71
3
 72
8
 73
4
 74
0
 40
0
 40
0
 40
0
 40
0
 40
1
 40
1
 40
1
 40
1
 10
270.009111
 20
43.879460
 30
0.0
 10
271.170289
 20
44.550734
 30
0.0
 10
271.884541
 20
45.791060
 30
0.0
 10
271.882288
 20
47.132305
 30
0.0
  0
LWPOLYLINE
  5
1cf
100
AcDbEntity
  8
trous
 62
7
100
AcDbPolyline
 90
1
 70
1
 10
271.882288
 20
83.132304
 30
0.0
  0
SPLINE
  5
1d0
100
AcDbEntity
  8
trous
 62
7
100
AcDbSpline
 70
8
 71
3
 72
8
 73
4
 74
0
 40
0
 40
0
 40
0
 40
0
 40
1
 40
1
 40
1
 40
1
 10
215.882297
 20
29.132314
 30
0.0
 10
215.882297
 20
30.472062
 30
0.0
 10
215.167550
 20
31.710041
 30
0.0
 10
214.007294
 20
32.379915
 30
0.0
  0
SPLINE
  5
1d1
100
AcDbEntity
  8
trous
 62
7
100
AcDbSpline
 70
8
 71
3
 72
8
 73
4
 74
0
 40
0
 40
0
 40
0
 40
0
 40
1
 40
1
 40
1
 40
1
 10
214.007294
 20
32.379915
 30
0.0
 10
212.847038
 20
33.049789
 30
0.0
 10
211.417544
 20
33.049789
 30
0.0
 10
210.257288
 20
32.379915
 30
0.0
  0
SPLINE
  5
1d2
100
AcDbEntity
  8
trous
 62
7
100
AcDbSpline
 70
8
 71
3
 72
8
 73
4
 74
0
 40
0
 40
0
 40
0
 40
0
 40
1
 40
1
 40
1
 40
1
 10
210.257288
 20
32.379915
 30
0.0
 10
209.097032
 20
31.710041
 30
0.0
 10
208.382285
 20
30.472062
 30
0.0
 10
208.382285
 20
29.132314
 30
0.0
  0
SPLINE
  5
1d3
100
AcDbEntity
  8
trous
 62
7
100
AcDbSpline
 70
8
 71
3
 72
8
 73
4
 74
0
 40
0
 40
0
 40
0
 40
0
 40
1
 40
1
 40
1
 40
1
 10
208.382285
 20
29.132314
 30
0.0
 10
208.382285
 20
27.792566
 30
0.0
 10
209.097032
 20
26.554588
 30
0.0
 10
210.257288
 20
25.884714
 30
0.0
  0
SPLINE
  5
1d4
100
AcDbEntity
  8
trous
 62
7
100
AcDbSpline
 70
8
 71
3
 72
8
 73
4
 74
0
 40
0
 40
0
 40
0
 40
0
 40
1
 40
1
 40
1
 40
1
 10
210.257288
 20
25.884714
 30
0.0
 10
211.417544
 20
25.214840
 30
0.0
 10
212.847038
 20
25.214840
 30
0.0
 10
214.007294
 20
25.884714
 30
0.0
  0
SPLINE
  5
1d5
100
AcDbEntity
  8
trous
 62
7
100
AcDbSpline
 70
8
 71
3
 72
8
 73
4
 74
0
 40
0
 40
0
 40
0
 40
0
 40
1
 40
1
 40
1
 40
1
 10
214.007294
 20
25.884714
 30
0.0
 10
215.167550
 20
26.554588
 30
0.0
 10
215.882297
 20
27.792566
 30
0.0
 10
215.882297
 20
29.132314
 30
0.0
  0
LWPOLYLINE
  5
1d6
100
AcDbEntity
  8
trous
 62
7
100
AcDbPolyline
 90
1
 70
1
 10
271.882288
 20
47.132305
 30
0.0
  0
SPLINE
  5
1d7
100
AcDbEntity
  8
trous
 62
7
100
AcDbSpline
 70
8
 71
3
 72
8
 73
4
 74
0
 40
0
 40
0
 40
0
 40
0
 40
1
 40
1
 40
1
 40
1
 10
215.882297
 20
65.132306
 30
0.0
 10
215.882297
 20
66.472054
 30
0.0
 10
215.167550
 20
67.710032
 30
0.0
 10
214.007294
 20
68.379906
 30
0.0
  0
SPLINE
  5
1d8
100
AcDbEntity
  8
trous
 62
7
100
AcDbSpline
 70
8
 71
3
 72
8
 73
4
 74
0
 40
0
 40
0
 40
0
 40
0
 40
1
 40
1
 40
1
 40
1
 10
214.007294
 20
68.379906
 30
0.0
 10
212.847038
 20
69.049780
 30
0.0
 10
211.417544
 20
69.049780
 30
0.0
 10
210.257288
 20
68.379906
 30
0.0
  0
SPLINE
  5
1d9
100
AcDbEntity
  8
trous
 62
7
100
AcDbSpline
 70
8
 71
3
 72
8
 73
4
 74
0
 40
0
 40
0
 40
0
 40
0
 40
1
 40
1
 40
1
 40
1
 10
210.257288
 20
68.379906
 30
0.0
 10
209.097032
 20
67.710032
 30
0.0
 10
208.382285
 20
66.472054
 30
0.0
 10
208.382285
 20
65.132306
 30
0.0
  0
SPLINE
  5
1da
100
AcDbEntity
  8
trous
 62
7
100
AcDbSpline
 70
8
 71
3
 72
8
 73
4
 74
0
 40
0
 40
0
 40
0
 40
0
 40
1
 40
1
 40
1
 40
1
 10
208.382285
 20
65.132306
 30
0.0
 10
208.382285
 20
63.792558
 30
0.0
 10
209.097032
 20
62.554580
 30
0.0
 10
210.257288
 20
61.884706
 30
0.0
  0
SPLINE
  5
1db
100
AcDbEntity
  8
trous
 62
7
100
AcDbSpline
 70
8
 71
3
 72
8
 73
4
 74
0
 40
0
 40
0
 40
0
 40
0
 40
1
 40
1
 40
1
 40
1
 10
210.257288
 20
61.884706
 30
0.0
 10
211.417544
 20
61.214832
 30
0.0
 10
212.847038
 20
61.214832
 30
0.0
 10
214.007294
 20
61.884706
 30
0.0
  0
SPLINE
  5
1dc
100
AcDbEntity
  8
trous
 62
7
100
AcDbSpline
 70
8
 71
3
 72
8
 73
4
 74
0
 40
0
 40
0
 40
0
 40
0
 40
1
 40
1
 40
1
 40
1
 10
214.007294
 20
61.884706
 30
0.0
 10
215.167550
 20
62.554580
 30
0.0
 10
215.882297
 20
63.792558
 30
0.0
 10
215.882297
 20
65.132306
 30
0.0
  0
LWPOLYLINE
  5
1dd
100
AcDbEntity
  8
trous
 62
7
100
AcDbPolyline
 90
1
 70
1
 10
215.882297
 20
29.132314
 30
0.0
  0
SPLINE
  5
1de
100
AcDbEntity
  8
trous
 62
7
100
AcDbSpline
 70
8
 71
3
 72
8
 73
4
 74
0
 40
0
 40
0
 40
0
 40
0
 40
1
 40
1
 40
1
 40
1
 10
215.882297
 20
101.132305
 30
0.0
 10
215.882297
 20
102.472053
 30
0.0
 10
215.167550
 20
103.710032
 30
0.0
 10
214.007294
 20
104.379906
 30
0.0
  0
SPLINE
  5
1df
100
AcDbEntity
  8
trous
 62
7
100
AcDbSpline
 70
8
 71
3
 72
8
 73
4
 74
0
 40
0
 40
0
 40
0
 40
0
 40
1
 40
1
 40
1
 40
1
 10
214.007294
 20
104.379906
 30
0.0
 10
212.847038
 20
105.049780
 30
0.0
 10
211.417544
 20
105.049780
 30
0.0
 10
210.257288
 20
104.379906
 30
0.0
  0
SPLINE
  5
1e0
100
AcDbEntity
  8
trous
 62
7
100
AcDbSpline
 70
8
 71
3
 72
8
 73
4
 74
0
 40
0
 40
0
 40
0
 40
0
 40
1
 40
1
 40
1
 40
1
 10
210.257288
 20
104.379906
 30
0.0
 10
209.097032
 20
103.710032
 30
0.0
 10
208.382285
 20
102.472053
 30
0.0
 10
208.382285
 20
101.132305
 30
0.0
  0
SPLINE
  5
1e1
100
AcDbEntity
  8
trous
 62
7
100
AcDbSpline
 70
8
 71
3
 72
8
 73
4
 74
0
 40
0
 40
0
 40
0
 40
0
 40
1
 40
1
 40
1
 40
1
 10
208.382285
 20
101.132305
 30
0.0
 10
208.382285
 20
99.792557
 30
0.0
 10
209.097032
 20
98.554579
 30
0.0
 10
210.257288
 20
97.884705
 30
0.0
  0
SPLINE
  5
1e2
100
AcDbEntity
  8
trous
 62
7
100
AcDbSpline
 70
8
 71
3
 72
8
 73
4
 74
0
 40
0
 40
0
 40
0
 40
0
 40
1
 40
1
 40
1
 40
1
 10
210.257288
 20
97.884705
 30
0.0
 10
211.417544
 20
97.214831
 30
0.0
 10
212.847038
 20
97.214831
 30
0.0
 10
214.007294
 20
97.884705
 30
0.0
  0
SPLINE
  5
1e3
100
AcDbEntity
  8
trous
 62
7
100
AcDbSpline
 70
8
 71
3
 72
8
 73
4
 74
0
 40
0
 40
0
 40
0
 40
0
 40
1
 40
1
 40
1
 40
1
 10
214.007294
 20
97.884705
 30
0.0
 10
215.167550
 20
98.554579
 30
0.0
 10
215.882297
 20
99.792557
 30
0.0
 10
215.882297
 20
101.132305
 30
0.0
  0
LWPOLYLINE
  5
1e4
100
AcDbEntity
  8
trous
 62
7
100
AcDbPolyline
 90
1
 70
1
 10
215.882297
 20
65.132306
 30
0.0
  0
SPLINE
  5
1e5
100
AcDbEntity
  8
trous
 62
7
100
AcDbSpline
 70
8
 71
3
 72
8
 73
4
 74
0
 40
0
 40
0
 40
0
 40
0
 40
1
 40
1
 40
1
 40
1
 10
139.882295
 20
65.132306
 30
0.0
 10
139.882295
 20
66.472054
 30
0.0
 10
139.167548
 20
67.710032
 30
0.0
 10
138.007292
 20
68.379906
 30
0.0
  0
SPLINE
  5
1e6
100
AcDbEntity
  8
trous
 62
7
100
AcDbSpline
 70
8
 71
3
 72
8
 73
4
 74
0
 40
0
 40
0
 40
0
 40
0
 40
1
 40
1
 40
1
 40
1
 10
138.007292
 20
68.379906
 30
0.0
 10
136.847037
 20
69.049780
 30
0.0
 10
135.417542
 20
69.049780
 30
0.0
 10
134.257287
 20
68.379906
 30
0.0
  0
SPLINE
  5
1e7
100
AcDbEntity
  8
trous
 62
7
100
AcDbSpline
 70
8
 71
3
 72
8
 73
4
 74
0
 40
0
 40
0
 40
0
 40
0
 40
1
 40
1
 40
1
 40
1
 10
134.257287
 20
68.379906
 30
0.0
 10
133.097031
 20
67.710032
 30
0.0
 10
132.382284
 20
66.472054
 30
0.0
 10
132.382284
 20
65.132306
 30
0.0
  0
SPLINE
  5
1e8
100
AcDbEntity
  8
trous
 62
7
100
AcDbSpline
 70
8
 71
3
 72
8
 73
4
 74
0
 40
0
 40
0
 40
0
 40
0
 40
1
 40
1
 40
1
 40
1
 10
132.382284
 20
65.132306
 30
0.0
 10
132.382284
 20
63.792558
 30
0.0
 10
133.097031
 20
62.554580
 30
0.0
 10
134.257287
 20
61.884706
 30
0.0
  0
SPLINE
  5
1e9
100
AcDbEntity
  8
trous
 62
7
100
AcDbSpline
 70
8
 71
3
 72
8
 73
4
 74
0
 40
0
 40
0
 40
0
 40
0
 40
1
 40
1
 40
1
 40
1
 10
134.257287
 20
61.884706
 30
0.0
 10
135.417542
 20
61.214832
 30
0.0
 10
136.847037
 20
61.214832
 30
0.0
 10
138.007292
 20
61.884706
 30
0.0
  0
SPLINE
  5
1ea
100
AcDbEntity
  8
trous
 62
7
100
AcDbSpline
 70
8
 71
3
 72
8
 73
4
 74
0
 40
0
 40
0
 40
0
 40
0
 40
1
 40
1
 40
1
 40
1
 10
138.007292
 20
61.884706
 30
0.0
 10
139.167548
 20
62.554580
 30
0.0
 10
139.882295
 20
63.792558
 30
0.0
 10
139.882295
 20
65.132306
 30
0.0
  0
LWPOLYLINE
  5
1eb
100
AcDbEntity
  8
trous
 62
7
100
AcDbPolyline
 90
1
 70
1
 10
215.882297
 20
101.132305
 30
0.0
  0
SPLINE
  5
1ec
100
AcDbEntity
  8
trous
 62
7
100
AcDbSpline
 70
8
 71
3
 72
8
 73
4
 74
0
 40
0
 40
0
 40
0
 40
0
 40
1
 40
1
 40
1
 40
1
 10
139.882295
 20
29.132314
 30
0.0
 10
139.882295
 20
30.472062
 30
0.0
 10
139.167548
 20
31.710041
 30
0.0
 10
138.007292
 20
32.379915
 30
0.0
  0
SPLINE
  5
1ed
100
AcDbEntity
  8
trous
 62
7
100
AcDbSpline
 70
8
 71
3
 72
8
 73
4
 74
0
 40
0
 40
0
 40
0
 40
0
 40
1
 40
1
 40
1
 40
1
 10
138.007292
 20
32.379915
 30
0.0
 10
136.847037
 20
33.049789
 30
0.0
 10
135.417542
 20
33.049789
 30
0.0
 10
134.257287
 20
32.379915
 30
0.0
  0
SPLINE
  5
1ee
100
AcDbEntity
  8
trous
 62
7
100
AcDbSpline
 70
8
 71
3
 72
8
 73
4
 74
0
 40
0
 40
0
 40
0
 40
0
 40
1
 40
1
 40
1
 40
1
 10
134.257287
 20
32.379915
 30
0.0
 10
133.097031
 20
31.710041
 30
0.0
 10
132.382284
 20
30.472062
 30
0.0
 10
132.382284
 20
29.132314
 30
0.0
  0
SPLINE
  5
1ef
100
AcDbEntity
  8
trous
 62
7
100
AcDbSpline
 70
8
 71
3
 72
8
 73
4
 74
0
 40
0
 40
0
 40
0
 40
0
 40
1
 40
1
 40
1
 40
1
 10
132.382284
 20
29.132314
 30
0.0
 10
132.382284
 20
27.792566
 30
0.0
 10
133.097031
 20
26.554588
 30
0.0
 10
134.257287
 20
25.884714
 30
0.0
  0
SPLINE
  5
1f0
100
AcDbEntity
  8
trous
 62
7
100
AcDbSpline
 70
8
 71
3
 72
8
 73
4
 74
0
 40
0
 40
0
 40
0
 40
0
 40
1
 40
1
 40
1
 40
1
 10
134.257287
 20
25.884714
 30
0.0
 10
135.417542
 20
25.214840
 30
0.0
 10
136.847037
 20
25.214840
 30
0.0
 10
138.007292
 20
25.884714
 30
0.0
  0
SPLINE
  5
1f1
100
AcDbEntity
  8
trous
 62
7
100
AcDbSpline
 70
8
 71
3
 72
8
 73
4
 74
0
 40
0
 40
0
 40
0
 40
0
 40
1
 40
1
 40
1
 40
1
 10
138.007292
 20
25.884714
 30
0.0
 10
139.167548
 20
26.554588
 30
0.0
 10
139.882295
 20
27.792566
 30
0.0
 10
139.882295
 20
29.132314
 30
0.0
  0
LWPOLYLINE
  5
1f2
100
AcDbEntity
  8
trous
 62
7
100
AcDbPolyline
 90
1
 70
1
 10
139.882295
 20
65.132306
 30
0.0
  0
SPLINE
  5
1f3
100
AcDbEntity
  8
trous
 62
7
100
AcDbSpline
 70
8
 71
3
 72
8
 73
4
 74
0
 40
0
 40
0
 40
0
 40
0
 40
1
 40
1
 40
1
 40
1
 10
104.720440
 20
101.132305
 30
0.0
 10
104.720440
 20
102.771490
 30
0.0
 10
103.845946
 20
104.286159
 30
0.0
 10
102.426370
 20
105.105752
 30
0.0
  0
SPLINE
  5
1f4
100
AcDbEntity
  8
trous
 62
7
100
AcDbSpline
 70
8
 71
3
 72
8
 73
4
 74
0
 40
0
 40
0
 40
0
 40
0
 40
1
 40
1
 40
1
 40
1
 10
102.426370
 20
105.105752
 30
0.0
 10
101.006794
 20
105.925344
 30
0.0
 10
99.257805
 20
105.925344
 30
0.0
 10
97.838229
 20
105.105752
 30
0.0
  0
SPLINE
  5
1f5
100
AcDbEntity
  8
trous
 62
7
100
AcDbSpline
 70
8
 71
3
 72
8
 73
4
 74
0
 40
0
 40
0
 40
0
 40
0
 40
1
 40
1
 40
1
 40
1
 10
97.838229
 20
105.105752
 30
0.0
 10
96.418653
 20
104.286159
 30
0.0
 10
95.544158
 20
102.771490
 30
0.0
 10
95.544158
 20
101.132305
 30
0.0
  0
SPLINE
  5
1f6
100
AcDbEntity
  8
trous
 62
7
100
AcDbSpline
 70
8
 71
3
 72
8
 73
4
 74
0
 40
0
 40
0
 40
0
 40
0
 40
1
 40
1
 40
1
 40
1
 10
95.544158
 20
101.132305
 30
0.0
 10
95.544158
 20
99.493120
 30
0.0
 10
96.418653
 20
97.978451
 30
0.0
 10
97.838229
 20
97.158859
 30
0.0
  0
SPLINE
  5
1f7
100
AcDbEntity
  8
trous
 62
7
100
AcDbSpline
 70
8
 71
3
 72
8
 73
4
 74
0
 40
0
 40
0
 40
0
 40
0
 40
1
 40
1
 40
1
 40
1
 10
97.838229
 20
97.158859
 30
0.0
 10
99.257805
 20
96.339266
 30
0.0
 10
101.006794
 20
96.339266
 30
0.0
 10
102.426370
 20
97.158859
 30
0.0
  0
SPLINE
  5
1f8
100
AcDbEntity
  8
trous
 62
7
100
AcDbSpline
 70
8
 71
3
 72
8
 73
4
 74
0
 40
0
 40
0
 40
0
 40
0
 40
1
 40
1
 40
1
 40
1
 10
102.426370
 20
97.158859
 30
0.0
 10
103.845946
 20
97.978451
 30
0.0
 10
104.720440
 20
99.493120
 30
0.0
 10
104.720440
 20
101.132305
 30
0.0
  0
LWPOLYLINE
  5
1f9
100
AcDbEntity
  8
trous
 62
7
100
AcDbPolyline
 90
1
 70
1
 10
139.882295
 20
29.132314
 30
0.0
  0
SPLINE
  5
1fa
100
AcDbEntity
  8
trous
 62
7
100
AcDbSpline
 70
8
 71
3
 72
8
 73
4
 74
0
 40
0
 40
0
 40
0
 40
0
 40
1
 40
1
 40
1
 40
1
 10
27.882292
 20
47.132305
 30
0.0
 10
27.884934
 20
48.473808
 30
0.0
 10
27.170768
 20
49.714540
 30
0.0
 10
26.009431
 20
50.386056
 30
0.0
  0
SPLINE
  5
1fb
100
AcDbEntity
  8
trous
 62
7
100
AcDbSpline
 70
8
 71
3
 72
8
 73
4
 74
0
 40
0
 40
0
 40
0
 40
0
 40
1
 40
1
 40
1
 40
1
 10
26.009431
 20
50.386056
 30
0.0
 10
24.848094
 20
51.057571
 30
0.0
 10
23.416504
 20
51.057571
 30
0.0
 10
22.255167
 20
50.386056
 30
0.0
  0
SPLINE
  5
1fc
100
AcDbEntity
  8
trous
 62
7
100
AcDbSpline
 70
8
 71
3
 72
8
 73
4
 74
0
 40
0
 40
0
 40
0
 40
0
 40
1
 40
1
 40
1
 40
1
 10
22.255167
 20
50.386056
 30
0.0
 10
21.093829
 20
49.714540
 30
0.0
 10
20.379663
 20
48.473808
 30
0.0
 10
20.382306
 20
47.132305
 30
0.0
  0
SPLINE
  5
1fd
100
AcDbEntity
  8
trous
 62
7
100
AcDbSpline
 70
8
 71
3
 72
8
 73
4
 74
0
 40
0
 40
0
 40
0
 40
0
 40
1
 40
1
 40
1
 40
1
 10
20.382306
 20
47.132305
 30
0.0
 10
20.379663
 20
45.790802
 30
0.0
 10
21.093829
 20
44.550070
 30
0.0
 10
22.255167
 20
43.878554
 30
0.0
  0
SPLINE
  5
1fe
100
AcDbEntity
  8
trous
 62
7
100
AcDbSpline
 70
8
 71
3
 72
8
 73
4
 74
0
 40
0
 40
0
 40
0
 40
0
 40
1
 40
1
 40
1
 40
1
 10
22.255167
 20
43.878554
 30
0.0
 10
23.416504
 20
43.207039
 30
0.0
 10
24.848094
 20
43.207039
 30
0.0
 10
26.009431
 20
43.878554
 30
0.0
  0
SPLINE
  5
1ff
100
AcDbEntity
  8
trous
 62
7
100
AcDbSpline
 70
8
 71
3
 72
8
 73
4
 74
0
 40
0
 40
0
 40
0
 40
0
 40
1
 40
1
 40
1
 40
1
 10
26.009431
 20
43.878554
 30
0.0
 10
27.170768
 20
44.550070
 30
0.0
 10
27.884934
 20
45.790802
 30
0.0
 10
27.882292
 20
47.132305
 30
0.0
  0
LWPOLYLINE
  5
200
100
AcDbEntity
  8
trous
 62
7
100
AcDbPolyline
 90
1
 70
1
 10
104.720440
 20
101.132305
 30
0.0
  0
SPLINE
  5
201
100
AcDbEntity
  8
trous
 62
7
100
AcDbSpline
 70
8
 71
3
 72
8
 73
4
 74
0
 40
0
 40
0
 40
0
 40
0
 40
1
 40
1
 40
1
 40
1
 10
45.882306
 20
101.132305
 30
0.0
 10
45.882306
 20
102.472053
 30
0.0
 10
45.167559
 20
103.710032
 30
0.0
 10
44.007303
 20
104.379906
 30
0.0
  0
SPLINE
  5
202
100
AcDbEntity
  8
trous
 62
7
100
AcDbSpline
 70
8
 71
3
 72
8
 73
4
 74
0
 40
0
 40
0
 40
0
 40
0
 40
1
 40
1
 40
1
 40
1
 10
44.007303
 20
104.379906
 30
0.0
 10
42.847047
 20
105.049780
 30
0.0
 10
41.417553
 20
105.049780
 30
0.0
 10
40.257297
 20
104.379906
 30
0.0
  0
SPLINE
  5
203
100
AcDbEntity
  8
trous
 62
7
100
AcDbSpline
 70
8
 71
3
 72
8
 73
4
 74
0
 40
0
 40
0
 40
0
 40
0
 40
1
 40
1
 40
1
 40
1
 10
40.257297
 20
104.379906
 30
0.0
 10
39.097042
 20
103.710032
 30
0.0
 10
38.382295
 20
102.472053
 30
0.0
 10
38.382295
 20
101.132305
 30
0.0
  0
SPLINE
  5
204
100
AcDbEntity
  8
trous
 62
7
100
AcDbSpline
 70
8
 71
3
 72
8
 73
4
 74
0
 40
0
 40
0
 40
0
 40
0
 40
1
 40
1
 40
1
 40
1
 10
38.382295
 20
101.132305
 30
0.0
 10
38.382295
 20
99.792557
 30
0.0
 10
39.097042
 20
98.554579
 30
0.0
 10
40.257297
 20
97.884705
 30
0.0
  0
SPLINE
  5
205
100
AcDbEntity
  8
trous
 62
7
100
AcDbSpline
 70
8
 71
3
 72
8
 73
4
 74
0
 40
0
 40
0
 40
0
 40
0
 40
1
 40
1
 40
1
 40
1
 10
40.257297
 20
97.884705
 30
0.0
 10
41.417553
 20
97.214831
 30
0.0
 10
42.847047
 20
97.214831
 30
0.0
 10
44.007303
 20
97.884705
 30
0.0
  0
SPLINE
  5
206
100
AcDbEntity
  8
trous
 62
7
100
AcDbSpline
 70
8
 71
3
 72
8
 73
4
 74
0
 40
0
 40
0
 40
0
 40
0
 40
1
 40
1
 40
1
 40
1
 10
44.007303
 20
97.884705
 30
0.0
 10
45.167559
 20
98.554579
 30
0.0
 10
45.882306
 20
99.792557
 30
0.0
 10
45.882306
 20
101.132305
 30
0.0
  0
LWPOLYLINE
  5
207
100
AcDbEntity
  8
trous
 62
7
100
AcDbPolyline
 90
1
 70
1
 10
27.882292
 20
47.132305
 30
0.0
  0
SPLINE
  5
208
100
AcDbEntity
  8
trous
 62
7
100
AcDbSpline
 70
8
 71
3
 72
8
 73
4
 74
0
 40
0
 40
0
 40
0
 40
0
 40
1
 40
1
 40
1
 40
1
 10
63.882294
 20
47.132305
 30
0.0
 10
63.882294
 20
48.472053
 30
0.0
 10
63.167547
 20
49.710031
 30
0.0
 10
62.007291
 20
50.379905
 30
0.0
  0
SPLINE
  5
209
100
AcDbEntity
  8
trous
 62
7
100
AcDbSpline
 70
8
 71
3
 72
8
 73
4
 74
0
 40
0
 40
0
 40
0
 40
0
 40
1
 40
1
 40
1
 40
1
 10
62.007291
 20
50.379905
 30
0.0
 10
60.847035
 20
51.049779
 30
0.0
 10
59.417541
 20
51.049779
 30
0.0
 10
58.257285
 20
50.379905
 30
0.0
  0
SPLINE
  5
20a
100
AcDbEntity
  8
trous
 62
7
100
AcDbSpline
 70
8
 71
3
 72
8
 73
4
 74
0
 40
0
 40
0
 40
0
 40
0
 40
1
 40
1
 40
1
 40
1
 10
58.257285
 20
50.379905
 30
0.0
 10
57.097029
 20
49.710031
 30
0.0
 10
56.382282
 20
48.472053
 30
0.0
 10
56.382282
 20
47.132305
 30
0.0
  0
SPLINE
  5
20b
100
AcDbEntity
  8
trous
 62
7
100
AcDbSpline
 70
8
 71
3
 72
8
 73
4
 74
0
 40
0
 40
0
 40
0
 40
0
 40
1
 40
1
 40
1
 40
1
 10
56.382282
 20
47.132305
 30
0.0
 10
56.382282
 20
45.792557
 30
0.0
 10
57.097029
 20
44.554579
 30
0.0
 10
58.257285
 20
43.884704
 30
0.0
  0
SPLINE
  5
20c
100
AcDbEntity
  8
trous
 62
7
100
AcDbSpline
 70
8
 71
3
 72
8
 73
4
 74
0
 40
0
 40
0
 40
0
 40
0
 40
1
 40
1
 40
1
 40
1
 10
58.257285
 20
43.884704
 30
0.0
 10
59.417541
 20
43.214830
 30
0.0
 10
60.847035
 20
43.214830
 30
0.0
 10
62.007291
 20
43.884704
 30
0.0
  0
SPLINE
  5
20d
100
AcDbEntity
  8
trous
 62
7
100
AcDbSpline
 70
8
 71
3
 72
8
 73
4
 74
0
 40
0
 40
0
 40
0
 40
0
 40
1
 40
1
 40
1
 40
1
 10
62.007291
 20
43.884704
 30
0.0
 10
63.167547
 20
44.554579
 30
0.0
 10
63.882294
 20
45.792557
 30
0.0
 10
63.882294
 20
47.132305
 30
0.0
  0
LWPOLYLINE
  5
20e
100
AcDbEntity
  8
trous
 62
7
100
AcDbPolyline
 90
1
 70
1
 10
45.882306
 20
101.132305
 30
0.0
  0
SPLINE
  5
20f
100
AcDbEntity
  8
trous
 62
7
100
AcDbSpline
 70
8
 71
3
 72
8
 73
4
 74
0
 40
0
 40
0
 40
0
 40
0
 40
1
 40
1
 40
1
 40
1
 10
243.382295
 20
101.132305
 30
0.0
 10
243.384111
 20
102.294627
 30
0.0
 10
242.765063
 20
103.369434
 30
0.0
 10
241.758765
 20
103.951120
 30
0.0
  0
SPLINE
  5
210
100
AcDbEntity
  8
trous
 62
7
100
AcDbSpline
 70
8
 71
3
 72
8
 73
4
 74
0
 40
0
 40
0
 40
0
 40
0
 40
1
 40
1
 40
1
 40
1
 10
241.758765
 20
103.951120
 30
0.0
 10
240.752466
 20
104.532806
 30
0.0
 10
239.512131
 20
104.532806
 30
0.0
 10
238.505832
 20
103.951120
 30
0.0
  0
SPLINE
  5
211
100
AcDbEntity
  8
trous
 62
7
100
AcDbSpline
 70
8
 71
3
 72
8
 73
4
 74
0
 40
0
 40
0
 40
0
 40
0
 40
1
 40
1
 40
1
 40
1
 10
238.505832
 20
103.951120
 30
0.0
 10
237.499534
 20
103.369434
 30
0.0
 10
236.880486
 20
102.294627
 30
0.0
 10
236.882302
 20
101.132305
 30
0.0
  0
SPLINE
  5
212
100
AcDbEntity
  8
trous
 62
7
100
AcDbSpline
 70
8
 71
3
 72
8
 73
4
 74
0
 40
0
 40
0
 40
0
 40
0
 40
1
 40
1
 40
1
 40
1
 10
236.882302
 20
101.132305
 30
0.0
 10
236.880486
 20
99.969984
 30
0.0
 10
237.499534
 20
98.895176
 30
0.0
 10
238.505832
 20
98.313490
 30
0.0
  0
SPLINE
  5
213
100
AcDbEntity
  8
trous
 62
7
100
AcDbSpline
 70
8
 71
3
 72
8
 73
4
 74
0
 40
0
 40
0
 40
0
 40
0
 40
1
 40
1
 40
1
 40
1
 10
238.505832
 20
98.313490
 30
0.0
 10
239.512131
 20
97.731805
 30
0.0
 10
240.752466
 20
97.731805
 30
0.0
 10
241.758765
 20
98.313490
 30
0.0
  0
SPLINE
  5
214
100
AcDbEntity
  8
trous
 62
7
100
AcDbSpline
 70
8
 71
3
 72
8
 73
4
 74
0
 40
0
 40
0
 40
0
 40
0
 40
1
 40
1
 40
1
 40
1
 10
241.758765
 20
98.313490
 30
0.0
 10
242.765063
 20
98.895176
 30
0.0
 10
243.384111
 20
99.969984
 30
0.0
 10
243.382295
 20
101.132305
 30
0.0
  0
LWPOLYLINE
  5
215
100
AcDbEntity
  8
trous
 62
7
100
AcDbPolyline
 90
1
 70
1
 10
63.882294
 20
47.132305
 30
0.0
  0
SPLINE
  5
216
100
AcDbEntity
  8
trous
 62
7
100
AcDbSpline
 70
8
 71
3
 72
8
 73
4
 74
0
 40
0
 40
0
 40
0
 40
0
 40
1
 40
1
 40
1
 40
1
 10
45.382296
 20
74.132407
 30
0.0
 10
45.384113
 20
75.294729
 30
0.0
 10
44.765065
 20
76.369536
 30
0.0
 10
43.758766
 20
76.951222
 30
0.0
  0
SPLINE
  5
217
100
AcDbEntity
  8
trous
 62
7
100
AcDbSpline
 70
8
 71
3
 72
8
 73
4
 74
0
 40
0
 40
0
 40
0
 40
0
 40
1
 40
1
 40
1
 40
1
 10
43.758766
 20
76.951222
 30
0.0
 10
42.752468
 20
77.532908
 30
0.0
 10
41.512133
 20
77.532908
 30
0.0
 10
40.505834
 20
76.951222
 30
0.0
  0
SPLINE
  5
218
100
AcDbEntity
  8
trous
 62
7
100
AcDbSpline
 70
8
 71
3
 72
8
 73
4
 74
0
 40
0
 40
0
 40
0
 40
0
 40
1
 40
1
 40
1
 40
1
 10
40.505834
 20
76.951222
 30
0.0
 10
39.499536
 20
76.369536
 30
0.0
 10
38.880488
 20
75.294729
 30
0.0
 10
38.882304
 20
74.132407
 30
0.0
  0
SPLINE
  5
219
100
AcDbEntity
  8
trous
 62
7
100
AcDbSpline
 70
8
 71
3
 72
8
 73
4
 74
0
 40
0
 40
0
 40
0
 40
0
 40
1
 40
1
 40
1
 40
1
 10
38.882304
 20
74.132407
 30
0.0
 10
38.880488
 20
72.970085
 30
0.0
 10
39.499536
 20
71.895278
 30
0.0
 10
40.505834
 20
71.313592
 30
0.0
  0
SPLINE
  5
21a
100
AcDbEntity
  8
trous
 62
7
100
AcDbSpline
 70
8
 71
3
 72
8
 73
4
 74
0
 40
0
 40
0
 40
0
 40
0
 40
1
 40
1
 40
1
 40
1
 10
40.505834
 20
71.313592
 30
0.0
 10
41.512133
 20
70.731906
 30
0.0
 10
42.752468
 20
70.731906
 30
0.0
 10
43.758766
 20
71.313592
 30
0.0
  0
SPLINE
  5
21b
100
AcDbEntity
  8
trous
 62
7
100
AcDbSpline
 70
8
 71
3
 72
8
 73
4
 74
0
 40
0
 40
0
 40
0
 40
0
 40
1
 40
1
 40
1
 40
1
 10
43.758766
 20
71.313592
 30
0.0
 10
44.765065
 20
71.895278
 30
0.0
 10
45.384113
 20
72.970085
 30
0.0
 10
45.382296
 20
74.132407
 30
0.0
  0
LWPOLYLINE
  5
21c
100
AcDbEntity
  8
trous
 62
7
100
AcDbPolyline
 90
1
 70
1
 10
243.382295
 20
101.132305
 30
0.0
  0
SPLINE
  5
21d
100
AcDbEntity
  8
trous
 62
7
100
AcDbSpline
 70
8
 71
3
 72
8
 73
4
 74
0
 40
0
 40
0
 40
0
 40
0
 40
1
 40
1
 40
1
 40
1
 10
459.382283
 20
29.132314
 30
0.0
 10
459.384100
 20
30.294636
 30
0.0
 10
458.765052
 20
31.369443
 30
0.0
 10
457.758753
 20
31.951129
 30
0.0
  0
SPLINE
  5
21e
100
AcDbEntity
  8
trous
 62
7
100
AcDbSpline
 70
8
 71
3
 72
8
 73
4
 74
0
 40
0
 40
0
 40
0
 40
0
 40
1
 40
1
 40
1
 40
1
 10
457.758753
 20
31.951129
 30
0.0
 10
456.752455
 20
32.532815
 30
0.0
 10
455.512120
 20
32.532815
 30
0.0
 10
454.505821
 20
31.951129
 30
0.0
  0
SPLINE
  5
21f
100
AcDbEntity
  8
trous
 62
7
100
AcDbSpline
 70
8
 71
3
 72
8
 73
4
 74
0
 40
0
 40
0
 40
0
 40
0
 40
1
 40
1
 40
1
 40
1
 10
454.505821
 20
31.951129
 30
0.0
 10
453.499523
 20
31.369443
 30
0.0
 10
452.880475
 20
30.294636
 30
0.0
 10
452.882291
 20
29.132314
 30
0.0
  0
SPLINE
  5
220
100
AcDbEntity
  8
trous
 62
7
100
AcDbSpline
 70
8
 71
3
 72
8
 73
4
 74
0
 40
0
 40
0
 40
0
 40
0
 40
1
 40
1
 40
1
 40
1
 10
452.882291
 20
29.132314
 30
0.0
 10
452.880475
 20
27.969993
 30
0.0
 10
453.499523
 20
26.895185
 30
0.0
 10
454.505821
 20
26.313500
 30
0.0
  0
SPLINE
  5
221
100
AcDbEntity
  8
trous
 62
7
100
AcDbSpline
 70
8
 71
3
 72
8
 73
4
 74
0
 40
0
 40
0
 40
0
 40
0
 40
1
 40
1
 40
1
 40
1
 10
454.505821
 20
26.313500
 30
0.0
 10
455.512120
 20
25.731814
 30
0.0
 10
456.752455
 20
25.731814
 30
0.0
 10
457.758753
 20
26.313500
 30
0.0
  0
SPLINE
  5
222
100
AcDbEntity
  8
trous
 62
7
100
AcDbSpline
 70
8
 71
3
 72
8
 73
4
 74
0
 40
0
 40
0
 40
0
 40
0
 40
1
 40
1
 40
1
 40
1
 10
457.758753
 20
26.313500
 30
0.0
 10
458.765052
 20
26.895185
 30
0.0
 10
459.384100
 20
27.969993
 30
0.0
 10
459.382283
 20
29.132314
 30
0.0
  0
LWPOLYLINE
  5
223
100
AcDbEntity
  8
trous
 62
7
100
AcDbPolyline
 90
1
 70
1
 10
45.382296
 20
74.132407
 30
0.0
  0
SPLINE
  5
224
100
AcDbEntity
  8
trous
 62
7
100
AcDbSpline
 70
8
 71
3
 72
8
 73
4
 74
0
 40
0
 40
0
 40
0
 40
0
 40
1
 40
1
 40
1
 40
1
 10
291.382291
 20
101.132305
 30
0.0
 10
291.384108
 20
102.294627
 30
0.0
 10
290.765060
 20
103.369434
 30
0.0
 10
289.758761
 20
103.951120
 30
0.0
  0
SPLINE
  5
225
100
AcDbEntity
  8
trous
 62
7
100
AcDbSpline
 70
8
 71
3
 72
8
 73
4
 74
0
 40
0
 40
0
 40
0
 40
0
 40
1
 40
1
 40
1
 40
1
 10
289.758761
 20
103.951120
 30
0.0
 10
288.752463
 20
104.532806
 30
0.0
 10
287.512127
 20
104.532806
 30
0.0
 10
286.505829
 20
103.951120
 30
0.0
  0
SPLINE
  5
226
100
AcDbEntity
  8
trous
 62
7
100
AcDbSpline
 70
8
 71
3
 72
8
 73
4
 74
0
 40
0
 40
0
 40
0
 40
0
 40
1
 40
1
 40
1
 40
1
 10
286.505829
 20
103.951120
 30
0.0
 10
285.499531
 20
103.369434
 30
0.0
 10
284.880482
 20
102.294627
 30
0.0
 10
284.882299
 20
101.132305
 30
0.0
  0
SPLINE
  5
227
100
AcDbEntity
  8
trous
 62
7
100
AcDbSpline
 70
8
 71
3
 72
8
 73
4
 74
0
 40
0
 40
0
 40
0
 40
0
 40
1
 40
1
 40
1
 40
1
 10
284.882299
 20
101.132305
 30
0.0
 10
284.880482
 20
99.969984
 30
0.0
 10
285.499531
 20
98.895176
 30
0.0
 10
286.505829
 20
98.313490
 30
0.0
  0
SPLINE
  5
228
100
AcDbEntity
  8
trous
 62
7
100
AcDbSpline
 70
8
 71
3
 72
8
 73
4
 74
0
 40
0
 40
0
 40
0
 40
0
 40
1
 40
1
 40
1
 40
1
 10
286.505829
 20
98.313490
 30
0.0
 10
287.512127
 20
97.731805
 30
0.0
 10
288.752463
 20
97.731805
 30
0.0
 10
289.758761
 20
98.313490
 30
0.0
  0
SPLINE
  5
229
100
AcDbEntity
  8
trous
 62
7
100
AcDbSpline
 70
8
 71
3
 72
8
 73
4
 74
0
 40
0
 40
0
 40
0
 40
0
 40
1
 40
1
 40
1
 40
1
 10
289.758761
 20
98.313490
 30
0.0
 10
290.765060
 20
98.895176
 30
0.0
 10
291.384108
 20
99.969984
 30
0.0
 10
291.382291
 20
101.132305
 30
0.0
  0
LWPOLYLINE
  5
22a
100
AcDbEntity
  8
trous
 62
7
100
AcDbPolyline
 90
1
 70
1
 10
459.382283
 20
29.132314
 30
0.0
  0
SPLINE
  5
22b
100
AcDbEntity
  8
trous
 62
7
100
AcDbSpline
 70
8
 71
3
 72
8
 73
4
 74
0
 40
0
 40
0
 40
0
 40
0
 40
1
 40
1
 40
1
 40
1
 10
63.382284
 20
20.132406
 30
0.0
 10
63.384101
 20
21.294728
 30
0.0
 10
62.765052
 20
22.369535
 30
0.0
 10
61.758754
 20
22.951221
 30
0.0
  0
SPLINE
  5
22c
100
AcDbEntity
  8
trous
 62
7
100
AcDbSpline
 70
8
 71
3
 72
8
 73
4
 74
0
 40
0
 40
0
 40
0
 40
0
 40
1
 40
1
 40
1
 40
1
 10
61.758754
 20
22.951221
 30
0.0
 10
60.752456
 20
23.532907
 30
0.0
 10
59.512120
 20
23.532907
 30
0.0
 10
58.505822
 20
22.951221
 30
0.0
  0
SPLINE
  5
22d
100
AcDbEntity
  8
trous
 62
7
100
AcDbSpline
 70
8
 71
3
 72
8
 73
4
 74
0
 40
0
 40
0
 40
0
 40
0
 40
1
 40
1
 40
1
 40
1
 10
58.505822
 20
22.951221
 30
0.0
 10
57.499524
 20
22.369535
 30
0.0
 10
56.880475
 20
21.294728
 30
0.0
 10
56.882292
 20
20.132406
 30
0.0
  0
SPLINE
  5
22e
100
AcDbEntity
  8
trous
 62
7
100
AcDbSpline
 70
8
 71
3
 72
8
 73
4
 74
0
 40
0
 40
0
 40
0
 40
0
 40
1
 40
1
 40
1
 40
1
 10
56.882292
 20
20.132406
 30
0.0
 10
56.880475
 20
18.970085
 30
0.0
 10
57.499524
 20
17.895277
 30
0.0
 10
58.505822
 20
17.313592
 30
0.0
  0
SPLINE
  5
22f
100
AcDbEntity
  8
trous
 62
7
100
AcDbSpline
 70
8
 71
3
 72
8
 73
4
 74
0
 40
0
 40
0
 40
0
 40
0
 40
1
 40
1
 40
1
 40
1
 10
58.505822
 20
17.313592
 30
0.0
 10
59.512120
 20
16.731906
 30
0.0
 10
60.752456
 20
16.731906
 30
0.0
 10
61.758754
 20
17.313592
 30
0.0
  0
SPLINE
  5
230
100
AcDbEntity
  8
trous
 62
7
100
AcDbSpline
 70
8
 71
3
 72
8
 73
4
 74
0
 40
0
 40
0
 40
0
 40
0
 40
1
 40
1
 40
1
 40
1
 10
61.758754
 20
17.313592
 30
0.0
 10
62.765052
 20
17.895277
 30
0.0
 10
63.384101
 20
18.970085
 30
0.0
 10
63.382284
 20
20.132406
 30
0.0
  0
LWPOLYLINE
  5
231
100
AcDbEntity
  8
trous
 62
7
100
AcDbPolyline
 90
1
 70
1
 10
291.382291
 20
101.132305
 30
0.0
  0
SPLINE
  5
232
100
AcDbEntity
  8
trous
 62
7
100
AcDbSpline
 70
8
 71
3
 72
8
 73
4
 74
0
 40
0
 40
0
 40
0
 40
0
 40
1
 40
1
 40
1
 40
1
 10
83.382297
 20
47.132305
 30
0.0
 10
83.384114
 20
48.294626
 30
0.0
 10
82.765065
 20
49.369434
 30
0.0
 10
81.758767
 20
49.951120
 30
0.0
  0
SPLINE
  5
233
100
AcDbEntity
  8
trous
 62
7
100
AcDbSpline
 70
8
 71
3
 72
8
 73
4
 74
0
 40
0
 40
0
 40
0
 40
0
 40
1
 40
1
 40
1
 40
1
 10
81.758767
 20
49.951120
 30
0.0
 10
80.752469
 20
50.532805
 30
0.0
 10
79.512133
 20
50.532805
 30
0.0
 10
78.505835
 20
49.951120
 30
0.0
  0
SPLINE
  5
234
100
AcDbEntity
  8
trous
 62
7
100
AcDbSpline
 70
8
 71
3
 72
8
 73
4
 74
0
 40
0
 40
0
 40
0
 40
0
 40
1
 40
1
 40
1
 40
1
 10
78.505835
 20
49.951120
 30
0.0
 10
77.499537
 20
49.369434
 30
0.0
 10
76.880488
 20
48.294626
 30
0.0
 10
76.882305
 20
47.132305
 30
0.0
  0
SPLINE
  5
235
100
AcDbEntity
  8
trous
 62
7
100
AcDbSpline
 70
8
 71
3
 72
8
 73
4
 74
0
 40
0
 40
0
 40
0
 40
0
 40
1
 40
1
 40
1
 40
1
 10
76.882305
 20
47.132305
 30
0.0
 10
76.880488
 20
45.969983
 30
0.0
 10
77.499537
 20
44.895176
 30
0.0
 10
78.505835
 20
44.313490
 30
0.0
  0
SPLINE
  5
236
100
AcDbEntity
  8
trous
 62
7
100
AcDbSpline
 70
8
 71
3
 72
8
 73
4
 74
0
 40
0
 40
0
 40
0
 40
0
 40
1
 40
1
 40
1
 40
1
 10
78.505835
 20
44.313490
 30
0.0
 10
79.512133
 20
43.731804
 30
0.0
 10
80.752469
 20
43.731804
 30
0.0
 10
81.758767
 20
44.313490
 30
0.0
  0
SPLINE
  5
237
100
AcDbEntity
  8
trous
 62
7
100
AcDbSpline
 70
8
 71
3
 72
8
 73
4
 74
0
 40
0
 40
0
 40
0
 40
0
 40
1
 40
1
 40
1
 40
1
 10
81.758767
 20
44.313490
 30
0.0
 10
82.765065
 20
44.895176
 30
0.0
 10
83.384114
 20
45.969983
 30
0.0
 10
83.382297
 20
47.132305
 30
0.0
  0
LWPOLYLINE
  5
238
100
AcDbEntity
  8
trous
 62
7
100
AcDbPolyline
 90
1
 70
1
 10
63.382284
 20
20.132406
 30
0.0
  0
SPLINE
  5
239
100
AcDbEntity
  8
trous
 62
7
100
AcDbSpline
 70
8
 71
3
 72
8
 73
4
 74
0
 40
0
 40
0
 40
0
 40
0
 40
1
 40
1
 40
1
 40
1
 10
83.382297
 20
83.132304
 30
0.0
 10
83.384114
 20
84.294626
 30
0.0
 10
82.765065
 20
85.369433
 30
0.0
 10
81.758767
 20
85.951119
 30
0.0
  0
SPLINE
  5
23a
100
AcDbEntity
  8
trous
 62
7
100
AcDbSpline
 70
8
 71
3
 72
8
 73
4
 74
0
 40
0
 40
0
 40
0
 40
0
 40
1
 40
1
 40
1
 40
1
 10
81.758767
 20
85.951119
 30
0.0
 10
80.752469
 20
86.532805
 30
0.0
 10
79.512133
 20
86.532805
 30
0.0
 10
78.505835
 20
85.951119
 30
0.0
  0
SPLINE
  5
23b
100
AcDbEntity
  8
trous
 62
7
100
AcDbSpline
 70
8
 71
3
 72
8
 73
4
 74
0
 40
0
 40
0
 40
0
 40
0
 40
1
 40
1
 40
1
 40
1
 10
78.505835
 20
85.951119
 30
0.0
 10
77.499537
 20
85.369433
 30
0.0
 10
76.880488
 20
84.294626
 30
0.0
 10
76.882305
 20
83.132304
 30
0.0
  0
SPLINE
  5
23c
100
AcDbEntity
  8
trous
 62
7
100
AcDbSpline
 70
8
 71
3
 72
8
 73
4
 74
0
 40
0
 40
0
 40
0
 40
0
 40
1
 40
1
 40
1
 40
1
 10
76.882305
 20
83.132304
 30
0.0
 10
76.880488
 20
81.969983
 30
0.0
 10
77.499537
 20
80.895175
 30
0.0
 10
78.505835
 20
80.313489
 30
0.0
  0
SPLINE
  5
23d
100
AcDbEntity
  8
trous
 62
7
100
AcDbSpline
 70
8
 71
3
 72
8
 73
4
 74
0
 40
0
 40
0
 40
0
 40
0
 40
1
 40
1
 40
1
 40
1
 10
78.505835
 20
80.313489
 30
0.0
 10
79.512133
 20
79.731804
 30
0.0
 10
80.752469
 20
79.731804
 30
0.0
 10
81.758767
 20
80.313489
 30
0.0
  0
SPLINE
  5
23e
100
AcDbEntity
  8
trous
 62
7
100
AcDbSpline
 70
8
 71
3
 72
8
 73
4
 74
0
 40
0
 40
0
 40
0
 40
0
 40
1
 40
1
 40
1
 40
1
 10
81.758767
 20
80.313489
 30
0.0
 10
82.765065
 20
80.895175
 30
0.0
 10
83.384114
 20
81.969983
 30
0.0
 10
83.382297
 20
83.132304
 30
0.0
  0
LWPOLYLINE
  5
23f
100
AcDbEntity
  8
trous
 62
7
100
AcDbPolyline
 90
1
 70
1
 10
83.382297
 20
47.132305
 30
0.0
  0
SPLINE
  5
240
100
AcDbEntity
  8
trous
 62
7
100
AcDbSpline
 70
8
 71
3
 72
8
 73
4
 74
0
 40
0
 40
0
 40
0
 40
0
 40
1
 40
1
 40
1
 40
1
 10
291.382291
 20
83.132304
 30
0.0
 10
291.384108
 20
84.294626
 30
0.0
 10
290.765060
 20
85.369433
 30
0.0
 10
289.758761
 20
85.951119
 30
0.0
  0
SPLINE
  5
241
100
AcDbEntity
  8
trous
 62
7
100
AcDbSpline
 70
8
 71
3
 72
8
 73
4
 74
0
 40
0
 40
0
 40
0
 40
0
 40
1
 40
1
 40
1
 40
1
 10
289.758761
 20
85.951119
 30
0.0
 10
288.752463
 20
86.532805
 30
0.0
 10
287.512127
 20
86.532805
 30
0.0
 10
286.505829
 20
85.951119
 30
0.0
  0
SPLINE
  5
242
100
AcDbEntity
  8
trous
 62
7
100
AcDbSpline
 70
8
 71
3
 72
8
 73
4
 74
0
 40
0
 40
0
 40
0
 40
0
 40
1
 40
1
 40
1
 40
1
 10
286.505829
 20
85.951119
 30
0.0
 10
285.499531
 20
85.369433
 30
0.0
 10
284.880482
 20
84.294626
 30
0.0
 10
284.882299
 20
83.132304
 30
0.0
  0
SPLINE
  5
243
100
AcDbEntity
  8
trous
 62
7
100
AcDbSpline
 70
8
 71
3
 72
8
 73
4
 74
0
 40
0
 40
0
 40
0
 40
0
 40
1
 40
1
 40
1
 40
1
 10
284.882299
 20
83.132304
 30
0.0
 10
284.880482
 20
81.969983
 30
0.0
 10
285.499531
 20
80.895175
 30
0.0
 10
286.505829
 20
80.313489
 30
0.0
  0
SPLINE
  5
244
100
AcDbEntity
  8
trous
 62
7
100
AcDbSpline
 70
8
 71
3
 72
8
 73
4
 74
0
 40
0
 40
0
 40
0
 40
0
 40
1
 40
1
 40
1
 40
1
 10
286.505829
 20
80.313489
 30
0.0
 10
287.512127
 20
79.731804
 30
0.0
 10
288.752463
 20
79.731804
 30
0.0
 10
289.758761
 20
80.313489
 30
0.0
  0
SPLINE
  5
245
100
AcDbEntity
  8
trous
 62
7
100
AcDbSpline
 70
8
 71
3
 72
8
 73
4
 74
0
 40
0
 40
0
 40
0
 40
0
 40
1
 40
1
 40
1
 40
1
 10
289.758761
 20
80.313489
 30
0.0
 10
290.765060
 20
80.895175
 30
0.0
 10
291.384108
 20
81.969983
 30
0.0
 10
291.382291
 20
83.132304
 30
0.0
  0
LWPOLYLINE
  5
246
100
AcDbEntity
  8
trous
 62
7
100
AcDbPolyline
 90
1
 70
1
 10
83.382297
 20
83.132304
 30
0.0
  0
SPLINE
  5
247
100
AcDbEntity
  8
trous
 62
7
100
AcDbSpline
 70
8
 71
3
 72
8
 73
4
 74
0
 40
0
 40
0
 40
0
 40
0
 40
1
 40
1
 40
1
 40
1
 10
291.382291
 20
65.132306
 30
0.0
 10
291.384108
 20
66.294627
 30
0.0
 10
290.765060
 20
67.369435
 30
0.0
 10
289.758761
 20
67.951121
 30
0.0
  0
SPLINE
  5
248
100
AcDbEntity
  8
trous
 62
7
100
AcDbSpline
 70
8
 71
3
 72
8
 73
4
 74
0
 40
0
 40
0
 40
0
 40
0
 40
1
 40
1
 40
1
 40
1
 10
289.758761
 20
67.951121
 30
0.0
 10
288.752463
 20
68.532806
 30
0.0
 10
287.512127
 20
68.532806
 30
0.0
 10
286.505829
 20
67.951121
 30
0.0
  0
SPLINE
  5
249
100
AcDbEntity
  8
trous
 62
7
100
AcDbSpline
 70
8
 71
3
 72
8
 73
4
 74
0
 40
0
 40
0
 40
0
 40
0
 40
1
 40
1
 40
1
 40
1
 10
286.505829
 20
67.951121
 30
0.0
 10
285.499531
 20
67.369435
 30
0.0
 10
284.880482
 20
66.294627
 30
0.0
 10
284.882299
 20
65.132306
 30
0.0
  0
SPLINE
  5
24a
100
AcDbEntity
  8
trous
 62
7
100
AcDbSpline
 70
8
 71
3
 72
8
 73
4
 74
0
 40
0
 40
0
 40
0
 40
0
 40
1
 40
1
 40
1
 40
1
 10
284.882299
 20
65.132306
 30
0.0
 10
284.880482
 20
63.969984
 30
0.0
 10
285.499531
 20
62.895177
 30
0.0
 10
286.505829
 20
62.313491
 30
0.0
  0
SPLINE
  5
24b
100
AcDbEntity
  8
trous
 62
7
100
AcDbSpline
 70
8
 71
3
 72
8
 73
4
 74
0
 40
0
 40
0
 40
0
 40
0
 40
1
 40
1
 40
1
 40
1
 10
286.505829
 20
62.313491
 30
0.0
 10
287.512127
 20
61.731805
 30
0.0
 10
288.752463
 20
61.731805
 30
0.0
 10
289.758761
 20
62.313491
 30
0.0
  0
SPLINE
  5
24c
100
AcDbEntity
  8
trous
 62
7
100
AcDbSpline
 70
8
 71
3
 72
8
 73
4
 74
0
 40
0
 40
0
 40
0
 40
0
 40
1
 40
1
 40
1
 40
1
 10
289.758761
 20
62.313491
 30
0.0
 10
290.765060
 20
62.895177
 30
0.0
 10
291.384108
 20
63.969984
 30
0.0
 10
291.382291
 20
65.132306
 30
0.0
  0
LWPOLYLINE
  5
24d
100
AcDbEntity
  8
trous
 62
7
100
AcDbPolyline
 90
1
 70
1
 10
291.382291
 20
83.132304
 30
0.0
  0
SPLINE
  5
24e
100
AcDbEntity
  8
trous
 62
7
100
AcDbSpline
 70
8
 71
3
 72
8
 73
4
 74
0
 40
0
 40
0
 40
0
 40
0
 40
1
 40
1
 40
1
 40
1
 10
243.382295
 20
83.132304
 30
0.0
 10
243.384111
 20
84.294626
 30
0.0
 10
242.765063
 20
85.369433
 30
0.0
 10
241.758765
 20
85.951119
 30
0.0
  0
SPLINE
  5
24f
100
AcDbEntity
  8
trous
 62
7
100
AcDbSpline
 70
8
 71
3
 72
8
 73
4
 74
0
 40
0
 40
0
 40
0
 40
0
 40
1
 40
1
 40
1
 40
1
 10
241.758765
 20
85.951119
 30
0.0
 10
240.752466
 20
86.532805
 30
0.0
 10
239.512131
 20
86.532805
 30
0.0
 10
238.505832
 20
85.951119
 30
0.0
  0
SPLINE
  5
250
100
AcDbEntity
  8
trous
 62
7
100
AcDbSpline
 70
8
 71
3
 72
8
 73
4
 74
0
 40
0
 40
0
 40
0
 40
0
 40
1
 40
1
 40
1
 40
1
 10
238.505832
 20
85.951119
 30
0.0
 10
237.499534
 20
85.369433
 30
0.0
 10
236.880486
 20
84.294626
 30
0.0
 10
236.882302
 20
83.132304
 30
0.0
  0
SPLINE
  5
251
100
AcDbEntity
  8
trous
 62
7
100
AcDbSpline
 70
8
 71
3
 72
8
 73
4
 74
0
 40
0
 40
0
 40
0
 40
0
 40
1
 40
1
 40
1
 40
1
 10
236.882302
 20
83.132304
 30
0.0
 10
236.880486
 20
81.969983
 30
0.0
 10
237.499534
 20
80.895175
 30
0.0
 10
238.505832
 20
80.313489
 30
0.0
  0
SPLINE
  5
252
100
AcDbEntity
  8
trous
 62
7
100
AcDbSpline
 70
8
 71
3
 72
8
 73
4
 74
0
 40
0
 40
0
 40
0
 40
0
 40
1
 40
1
 40
1
 40
1
 10
238.505832
 20
80.313489
 30
0.0
 10
239.512131
 20
79.731804
 30
0.0
 10
240.752466
 20
79.731804
 30
0.0
 10
241.758765
 20
80.313489
 30
0.0
  0
SPLINE
  5
253
100
AcDbEntity
  8
trous
 62
7
100
AcDbSpline
 70
8
 71
3
 72
8
 73
4
 74
0
 40
0
 40
0
 40
0
 40
0
 40
1
 40
1
 40
1
 40
1
 10
241.758765
 20
80.313489
 30
0.0
 10
242.765063
 20
80.895175
 30
0.0
 10
243.384111
 20
81.969983
 30
0.0
 10
243.382295
 20
83.132304
 30
0.0
  0
LWPOLYLINE
  5
254
100
AcDbEntity
  8
trous
 62
7
100
AcDbPolyline
 90
1
 70
1
 10
291.382291
 20
65.132306
 30
0.0
  0
SPLINE
  5
255
100
AcDbEntity
  8
trous
 62
7
100
AcDbSpline
 70
8
 71
3
 72
8
 73
4
 74
0
 40
0
 40
0
 40
0
 40
0
 40
1
 40
1
 40
1
 40
1
 10
243.382295
 20
65.132306
 30
0.0
 10
243.384111
 20
66.294627
 30
0.0
 10
242.765063
 20
67.369435
 30
0.0
 10
241.758765
 20
67.951121
 30
0.0
  0
SPLINE
  5
256
100
AcDbEntity
  8
trous
 62
7
100
AcDbSpline
 70
8
 71
3
 72
8
 73
4
 74
0
 40
0
 40
0
 40
0
 40
0
 40
1
 40
1
 40
1
 40
1
 10
241.758765
 20
67.951121
 30
0.0
 10
240.752466
 20
68.532806
 30
0.0
 10
239.512131
 20
68.532806
 30
0.0
 10
238.505832
 20
67.951121
 30
0.0
  0
SPLINE
  5
257
100
AcDbEntity
  8
trous
 62
7
100
AcDbSpline
 70
8
 71
3
 72
8
 73
4
 74
0
 40
0
 40
0
 40
0
 40
0
 40
1
 40
1
 40
1
 40
1
 10
238.505832
 20
67.951121
 30
0.0
 10
237.499534
 20
67.369435
 30
0.0
 10
236.880486
 20
66.294627
 30
0.0
 10
236.882302
 20
65.132306
 30
0.0
  0
SPLINE
  5
258
100
AcDbEntity
  8
trous
 62
7
100
AcDbSpline
 70
8
 71
3
 72
8
 73
4
 74
0
 40
0
 40
0
 40
0
 40
0
 40
1
 40
1
 40
1
 40
1
 10
236.882302
 20
65.132306
 30
0.0
 10
236.880486
 20
63.969984
 30
0.0
 10
237.499534
 20
62.895177
 30
0.0
 10
238.505832
 20
62.313491
 30
0.0
  0
SPLINE
  5
259
100
AcDbEntity
  8
trous
 62
7
100
AcDbSpline
 70
8
 71
3
 72
8
 73
4
 74
0
 40
0
 40
0
 40
0
 40
0
 40
1
 40
1
 40
1
 40
1
 10
238.505832
 20
62.313491
 30
0.0
 10
239.512131
 20
61.731805
 30
0.0
 10
240.752466
 20
61.731805
 30
0.0
 10
241.758765
 20
62.313491
 30
0.0
  0
SPLINE
  5
25a
100
AcDbEntity
  8
trous
 62
7
100
AcDbSpline
 70
8
 71
3
 72
8
 73
4
 74
0
 40
0
 40
0
 40
0
 40
0
 40
1
 40
1
 40
1
 40
1
 10
241.758765
 20
62.313491
 30
0.0
 10
242.765063
 20
62.895177
 30
0.0
 10
243.384111
 20
63.969984
 30
0.0
 10
243.382295
 20
65.132306
 30
0.0
  0
LWPOLYLINE
  5
25b
100
AcDbEntity
  8
trous
 62
7
100
AcDbPolyline
 90
1
 70
1
 10
243.382295
 20
83.132304
 30
0.0
  0
SPLINE
  5
25c
100
AcDbEntity
  8
trous
 62
7
100
AcDbSpline
 70
8
 71
3
 72
8
 73
4
 74
0
 40
0
 40
0
 40
0
 40
0
 40
1
 40
1
 40
1
 40
1
 10
243.382295
 20
47.132305
 30
0.0
 10
243.384111
 20
48.294626
 30
0.0
 10
242.765063
 20
49.369434
 30
0.0
 10
241.758765
 20
49.951120
 30
0.0
  0
SPLINE
  5
25d
100
AcDbEntity
  8
trous
 62
7
100
AcDbSpline
 70
8
 71
3
 72
8
 73
4
 74
0
 40
0
 40
0
 40
0
 40
0
 40
1
 40
1
 40
1
 40
1
 10
241.758765
 20
49.951120
 30
0.0
 10
240.752466
 20
50.532805
 30
0.0
 10
239.512131
 20
50.532805
 30
0.0
 10
238.505832
 20
49.951120
 30
0.0
  0
SPLINE
  5
25e
100
AcDbEntity
  8
trous
 62
7
100
AcDbSpline
 70
8
 71
3
 72
8
 73
4
 74
0
 40
0
 40
0
 40
0
 40
0
 40
1
 40
1
 40
1
 40
1
 10
238.505832
 20
49.951120
 30
0.0
 10
237.499534
 20
49.369434
 30
0.0
 10
236.880486
 20
48.294626
 30
0.0
 10
236.882302
 20
47.132305
 30
0.0
  0
SPLINE
  5
25f
100
AcDbEntity
  8
trous
 62
7
100
AcDbSpline
 70
8
 71
3
 72
8
 73
4
 74
0
 40
0
 40
0
 40
0
 40
0
 40
1
 40
1
 40
1
 40
1
 10
236.882302
 20
47.132305
 30
0.0
 10
236.880486
 20
45.969983
 30
0.0
 10
237.499534
 20
44.895176
 30
0.0
 10
238.505832
 20
44.313490
 30
0.0
  0
SPLINE
  5
260
100
AcDbEntity
  8
trous
 62
7
100
AcDbSpline
 70
8
 71
3
 72
8
 73
4
 74
0
 40
0
 40
0
 40
0
 40
0
 40
1
 40
1
 40
1
 40
1
 10
238.505832
 20
44.313490
 30
0.0
 10
239.512131
 20
43.731804
 30
0.0
 10
240.752466
 20
43.731804
 30
0.0
 10
241.758765
 20
44.313490
 30
0.0
  0
SPLINE
  5
261
100
AcDbEntity
  8
trous
 62
7
100
AcDbSpline
 70
8
 71
3
 72
8
 73
4
 74
0
 40
0
 40
0
 40
0
 40
0
 40
1
 40
1
 40
1
 40
1
 10
241.758765
 20
44.313490
 30
0.0
 10
242.765063
 20
44.895176
 30
0.0
 10
243.384111
 20
45.969983
 30
0.0
 10
243.382295
 20
47.132305
 30
0.0
  0
LWPOLYLINE
  5
262
100
AcDbEntity
  8
trous
 62
7
100
AcDbPolyline
 90
1
 70
1
 10
243.382295
 20
65.132306
 30
0.0
  0
SPLINE
  5
263
100
AcDbEntity
  8
trous
 62
7
100
AcDbSpline
 70
8
 71
3
 72
8
 73
4
 74
0
 40
0
 40
0
 40
0
 40
0
 40
1
 40
1
 40
1
 40
1
 10
243.382295
 20
29.132314
 30
0.0
 10
243.384111
 20
30.294636
 30
0.0
 10
242.765063
 20
31.369443
 30
0.0
 10
241.758765
 20
31.951129
 30
0.0
  0
SPLINE
  5
264
100
AcDbEntity
  8
trous
 62
7
100
AcDbSpline
 70
8
 71
3
 72
8
 73
4
 74
0
 40
0
 40
0
 40
0
 40
0
 40
1
 40
1
 40
1
 40
1
 10
241.758765
 20
31.951129
 30
0.0
 10
240.752466
 20
32.532815
 30
0.0
 10
239.512131
 20
32.532815
 30
0.0
 10
238.505832
 20
31.951129
 30
0.0
  0
SPLINE
  5
265
100
AcDbEntity
  8
trous
 62
7
100
AcDbSpline
 70
8
 71
3
 72
8
 73
4
 74
0
 40
0
 40
0
 40
0
 40
0
 40
1
 40
1
 40
1
 40
1
 10
238.505832
 20
31.951129
 30
0.0
 10
237.499534
 20
31.369443
 30
0.0
 10
236.880486
 20
30.294636
 30
0.0
 10
236.882302
 20
29.132314
 30
0.0
  0
SPLINE
  5
266
100
AcDbEntity
  8
trous
 62
7
100
AcDbSpline
 70
8
 71
3
 72
8
 73
4
 74
0
 40
0
 40
0
 40
0
 40
0
 40
1
 40
1
 40
1
 40
1
 10
236.882302
 20
29.132314
 30
0.0
 10
236.880486
 20
27.969993
 30
0.0
 10
237.499534
 20
26.895185
 30
0.0
 10
238.505832
 20
26.313500
 30
0.0
  0
SPLINE
  5
267
100
AcDbEntity
  8
trous
 62
7
100
AcDbSpline
 70
8
 71
3
 72
8
 73
4
 74
0
 40
0
 40
0
 40
0
 40
0
 40
1
 40
1
 40
1
 40
1
 10
238.505832
 20
26.313500
 30
0.0
 10
239.512131
 20
25.731814
 30
0.0
 10
240.752466
 20
25.731814
 30
0.0
 10
241.758765
 20
26.313500
 30
0.0
  0
SPLINE
  5
268
100
AcDbEntity
  8
trous
 62
7
100
AcDbSpline
 70
8
 71
3
 72
8
 73
4
 74
0
 40
0
 40
0
 40
0
 40
0
 40
1
 40
1
 40
1
 40
1
 10
241.758765
 20
26.313500
 30
0.0
 10
242.765063
 20
26.895185
 30
0.0
 10
243.384111
 20
27.969993
 30
0.0
 10
243.382295
 20
29.132314
 30
0.0
  0
LWPOLYLINE
  5
269
100
AcDbEntity
  8
trous
 62
7
100
AcDbPolyline
 90
1
 70
1
 10
243.382295
 20
47.132305
 30
0.0
  0
SPLINE
  5
26a
100
AcDbEntity
  8
trous
 62
7
100
AcDbSpline
 70
8
 71
3
 72
8
 73
4
 74
0
 40
0
 40
0
 40
0
 40
0
 40
1
 40
1
 40
1
 40
1
 10
291.382291
 20
47.132305
 30
0.0
 10
291.384108
 20
48.294626
 30
0.0
 10
290.765060
 20
49.369434
 30
0.0
 10
289.758761
 20
49.951120
 30
0.0
  0
SPLINE
  5
26b
100
AcDbEntity
  8
trous
 62
7
100
AcDbSpline
 70
8
 71
3
 72
8
 73
4
 74
0
 40
0
 40
0
 40
0
 40
0
 40
1
 40
1
 40
1
 40
1
 10
289.758761
 20
49.951120
 30
0.0
 10
288.752463
 20
50.532805
 30
0.0
 10
287.512127
 20
50.532805
 30
0.0
 10
286.505829
 20
49.951120
 30
0.0
  0
SPLINE
  5
26c
100
AcDbEntity
  8
trous
 62
7
100
AcDbSpline
 70
8
 71
3
 72
8
 73
4
 74
0
 40
0
 40
0
 40
0
 40
0
 40
1
 40
1
 40
1
 40
1
 10
286.505829
 20
49.951120
 30
0.0
 10
285.499531
 20
49.369434
 30
0.0
 10
284.880482
 20
48.294626
 30
0.0
 10
284.882299
 20
47.132305
 30
0.0
  0
SPLINE
  5
26d
100
AcDbEntity
  8
trous
 62
7
100
AcDbSpline
 70
8
 71
3
 72
8
 73
4
 74
0
 40
0
 40
0
 40
0
 40
0
 40
1
 40
1
 40
1
 40
1
 10
284.882299
 20
47.132305
 30
0.0
 10
284.880482
 20
45.969983
 30
0.0
 10
285.499531
 20
44.895176
 30
0.0
 10
286.505829
 20
44.313490
 30
0.0
  0
SPLINE
  5
26e
100
AcDbEntity
  8
trous
 62
7
100
AcDbSpline
 70
8
 71
3
 72
8
 73
4
 74
0
 40
0
 40
0
 40
0
 40
0
 40
1
 40
1
 40
1
 40
1
 10
286.505829
 20
44.313490
 30
0.0
 10
287.512127
 20
43.731804
 30
0.0
 10
288.752463
 20
43.731804
 30
0.0
 10
289.758761
 20
44.313490
 30
0.0
  0
SPLINE
  5
26f
100
AcDbEntity
  8
trous
 62
7
100
AcDbSpline
 70
8
 71
3
 72
8
 73
4
 74
0
 40
0
 40
0
 40
0
 40
0
 40
1
 40
1
 40
1
 40
1
 10
289.758761
 20
44.313490
 30
0.0
 10
290.765060
 20
44.895176
 30
0.0
 10
291.384108
 20
45.969983
 30
0.0
 10
291.382291
 20
47.132305
 30
0.0
  0
LWPOLYLINE
  5
270
100
AcDbEntity
  8
trous
 62
7
100
AcDbPolyline
 90
1
 70
1
 10
243.382295
 20
29.132314
 30
0.0
  0
SPLINE
  5
271
100
AcDbEntity
  8
trous
 62
7
100
AcDbSpline
 70
8
 71
3
 72
8
 73
4
 74
0
 40
0
 40
0
 40
0
 40
0
 40
1
 40
1
 40
1
 40
1
 10
33.851958
 20
73.452067
 30
0.0
 10
33.608896
 20
73.452067
 30
0.0
 10
33.384297
 20
73.581739
 30
0.0
 10
33.262765
 20
73.792237
 30
0.0
  0
SPLINE
  5
272
100
AcDbEntity
  8
trous
 62
7
100
AcDbSpline
 70
8
 71
3
 72
8
 73
4
 74
0
 40
0
 40
0
 40
0
 40
0
 40
1
 40
1
 40
1
 40
1
 10
33.262765
 20
73.792237
 30
0.0
 10
33.141234
 20
74.002736
 30
0.0
 10
33.141234
 20
74.262080
 30
0.0
 10
33.262765
 20
74.472579
 30
0.0
  0
SPLINE
  5
273
100
AcDbEntity
  8
trous
 62
7
100
AcDbSpline
 70
8
 71
3
 72
8
 73
4
 74
0
 40
0
 40
0
 40
0
 40
0
 40
1
 40
1
 40
1
 40
1
 10
33.262765
 20
74.472579
 30
0.0
 10
33.384297
 20
74.683077
 30
0.0
 10
33.608896
 20
74.812750
 30
0.0
 10
33.851958
 20
74.812750
 30
0.0
  0
SPLINE
  5
274
100
AcDbEntity
  8
trous
 62
7
100
AcDbSpline
 70
8
 71
3
 72
8
 73
4
 74
0
 40
0
 40
0
 40
0
 40
0
 40
1
 40
1
 40
1
 40
1
 10
33.851958
 20
74.812750
 30
0.0
 10
34.095021
 20
74.812750
 30
0.0
 10
34.319620
 20
74.683077
 30
0.0
 10
34.441151
 20
74.472579
 30
0.0
  0
SPLINE
  5
275
100
AcDbEntity
  8
trous
 62
7
100
AcDbSpline
 70
8
 71
3
 72
8
 73
4
 74
0
 40
0
 40
0
 40
0
 40
0
 40
1
 40
1
 40
1
 40
1
 10
34.441151
 20
74.472579
 30
0.0
 10
34.562683
 20
74.262080
 30
0.0
 10
34.562683
 20
74.002736
 30
0.0
 10
34.441151
 20
73.792237
 30
0.0
  0
SPLINE
  5
276
100
AcDbEntity
  8
trous
 62
7
100
AcDbSpline
 70
8
 71
3
 72
8
 73
4
 74
0
 40
0
 40
0
 40
0
 40
0
 40
1
 40
1
 40
1
 40
1
 10
34.441151
 20
73.792237
 30
0.0
 10
34.319620
 20
73.581739
 30
0.0
 10
34.095021
 20
73.452067
 30
0.0
 10
33.851958
 20
73.452067
 30
0.0
  0
LWPOLYLINE
  5
277
100
AcDbEntity
  8
trous
 62
7
100
AcDbPolyline
 90
1
 70
1
 10
291.382291
 20
47.132305
 30
0.0
  0
SPLINE
  5
278
100
AcDbEntity
  8
trous
 62
7
100
AcDbSpline
 70
8
 71
3
 72
8
 73
4
 74
0
 40
0
 40
0
 40
0
 40
0
 40
1
 40
1
 40
1
 40
1
 10
28.851958
 20
73.452067
 30
0.0
 10
28.608895
 20
73.452067
 30
0.0
 10
28.384296
 20
73.581739
 30
0.0
 10
28.262765
 20
73.792237
 30
0.0
  0
SPLINE
  5
279
100
AcDbEntity
  8
trous
 62
7
100
AcDbSpline
 70
8
 71
3
 72
8
 73
4
 74
0
 40
0
 40
0
 40
0
 40
0
 40
1
 40
1
 40
1
 40
1
 10
28.262765
 20
73.792237
 30
0.0
 10
28.141233
 20
74.002736
 30
0.0
 10
28.141233
 20
74.262080
 30
0.0
 10
28.262765
 20
74.472579
 30
0.0
  0
SPLINE
  5
27a
100
AcDbEntity
  8
trous
 62
7
100
AcDbSpline
 70
8
 71
3
 72
8
 73
4
 74
0
 40
0
 40
0
 40
0
 40
0
 40
1
 40
1
 40
1
 40
1
 10
28.262765
 20
74.472579
 30
0.0
 10
28.384296
 20
74.683077
 30
0.0
 10
28.608895
 20
74.812750
 30
0.0
 10
28.851958
 20
74.812750
 30
0.0
  0
SPLINE
  5
27b
100
AcDbEntity
  8
trous
 62
7
100
AcDbSpline
 70
8
 71
3
 72
8
 73
4
 74
0
 40
0
 40
0
 40
0
 40
0
 40
1
 40
1
 40
1
 40
1
 10
28.851958
 20
74.812750
 30
0.0
 10
29.095020
 20
74.812750
 30
0.0
 10
29.319619
 20
74.683077
 30
0.0
 10
29.441151
 20
74.472579
 30
0.0
  0
SPLINE
  5
27c
100
AcDbEntity
  8
trous
 62
7
100
AcDbSpline
 70
8
 71
3
 72
8
 73
4
 74
0
 40
0
 40
0
 40
0
 40
0
 40
1
 40
1
 40
1
 40
1
 10
29.441151
 20
74.472579
 30
0.0
 10
29.562682
 20
74.262080
 30
0.0
 10
29.562682
 20
74.002736
 30
0.0
 10
29.441151
 20
73.792237
 30
0.0
  0
SPLINE
  5
27d
100
AcDbEntity
  8
trous
 62
7
100
AcDbSpline
 70
8
 71
3
 72
8
 73
4
 74
0
 40
0
 40
0
 40
0
 40
0
 40
1
 40
1
 40
1
 40
1
 10
29.441151
 20
73.792237
 30
0.0
 10
29.319619
 20
73.581739
 30
0.0
 10
29.095020
 20
73.452067
 30
0.0
 10
28.851958
 20
73.452067
 30
0.0
  0
LWPOLYLINE
  5
27e
100
AcDbEntity
  8
trous
 62
7
100
AcDbPolyline
 90
1
 70
1
 10
33.851958
 20
73.452067
 30
0.0
  0
SPLINE
  5
27f
100
AcDbEntity
  8
trous
 62
7
100
AcDbSpline
 70
8
 71
3
 72
8
 73
4
 74
0
 40
0
 40
0
 40
0
 40
0
 40
1
 40
1
 40
1
 40
1
 10
55.412643
 20
73.452067
 30
0.0
 10
55.169580
 20
73.452067
 30
0.0
 10
54.944981
 20
73.581739
 30
0.0
 10
54.823450
 20
73.792237
 30
0.0
  0
SPLINE
  5
280
100
AcDbEntity
  8
trous
 62
7
100
AcDbSpline
 70
8
 71
3
 72
8
 73
4
 74
0
 40
0
 40
0
 40
0
 40
0
 40
1
 40
1
 40
1
 40
1
 10
54.823450
 20
73.792237
 30
0.0
 10
54.701919
 20
74.002736
 30
0.0
 10
54.701919
 20
74.262080
 30
0.0
 10
54.823450
 20
74.472579
 30
0.0
  0
SPLINE
  5
281
100
AcDbEntity
  8
trous
 62
7
100
AcDbSpline
 70
8
 71
3
 72
8
 73
4
 74
0
 40
0
 40
0
 40
0
 40
0
 40
1
 40
1
 40
1
 40
1
 10
54.823450
 20
74.472579
 30
0.0
 10
54.944981
 20
74.683077
 30
0.0
 10
55.169580
 20
74.812750
 30
0.0
 10
55.412643
 20
74.812750
 30
0.0
  0
SPLINE
  5
282
100
AcDbEntity
  8
trous
 62
7
100
AcDbSpline
 70
8
 71
3
 72
8
 73
4
 74
0
 40
0
 40
0
 40
0
 40
0
 40
1
 40
1
 40
1
 40
1
 10
55.412643
 20
74.812750
 30
0.0
 10
55.655706
 20
74.812750
 30
0.0
 10
55.880305
 20
74.683077
 30
0.0
 10
56.001836
 20
74.472579
 30
0.0
  0
SPLINE
  5
283
100
AcDbEntity
  8
trous
 62
7
100
AcDbSpline
 70
8
 71
3
 72
8
 73
4
 74
0
 40
0
 40
0
 40
0
 40
0
 40
1
 40
1
 40
1
 40
1
 10
56.001836
 20
74.472579
 30
0.0
 10
56.123367
 20
74.262080
 30
0.0
 10
56.123367
 20
74.002736
 30
0.0
 10
56.001836
 20
73.792237
 30
0.0
  0
SPLINE
  5
284
100
AcDbEntity
  8
trous
 62
7
100
AcDbSpline
 70
8
 71
3
 72
8
 73
4
 74
0
 40
0
 40
0
 40
0
 40
0
 40
1
 40
1
 40
1
 40
1
 10
56.001836
 20
73.792237
 30
0.0
 10
55.880305
 20
73.581739
 30
0.0
 10
55.655706
 20
73.452067
 30
0.0
 10
55.412643
 20
73.452067
 30
0.0
  0
LWPOLYLINE
  5
285
100
AcDbEntity
  8
trous
 62
7
100
AcDbPolyline
 90
1
 70
1
 10
28.851958
 20
73.452067
 30
0.0
  0
SPLINE
  5
286
100
AcDbEntity
  8
trous
 62
7
100
AcDbSpline
 70
8
 71
3
 72
8
 73
4
 74
0
 40
0
 40
0
 40
0
 40
0
 40
1
 40
1
 40
1
 40
1
 10
50.412642
 20
73.452067
 30
0.0
 10
50.169580
 20
73.452067
 30
0.0
 10
49.944981
 20
73.581739
 30
0.0
 10
49.823449
 20
73.792237
 30
0.0
  0
SPLINE
  5
287
100
AcDbEntity
  8
trous
 62
7
100
AcDbSpline
 70
8
 71
3
 72
8
 73
4
 74
0
 40
0
 40
0
 40
0
 40
0
 40
1
 40
1
 40
1
 40
1
 10
49.823449
 20
73.792237
 30
0.0
 10
49.701918
 20
74.002736
 30
0.0
 10
49.701918
 20
74.262080
 30
0.0
 10
49.823449
 20
74.472579
 30
0.0
  0
SPLINE
  5
288
100
AcDbEntity
  8
trous
 62
7
100
AcDbSpline
 70
8
 71
3
 72
8
 73
4
 74
0
 40
0
 40
0
 40
0
 40
0
 40
1
 40
1
 40
1
 40
1
 10
49.823449
 20
74.472579
 30
0.0
 10
49.944981
 20
74.683077
 30
0.0
 10
50.169580
 20
74.812750
 30
0.0
 10
50.412642
 20
74.812750
 30
0.0
  0
SPLINE
  5
289
100
AcDbEntity
  8
trous
 62
7
100
AcDbSpline
 70
8
 71
3
 72
8
 73
4
 74
0
 40
0
 40
0
 40
0
 40
0
 40
1
 40
1
 40
1
 40
1
 10
50.412642
 20
74.812750
 30
0.0
 10
50.655705
 20
74.812750
 30
0.0
 10
50.880304
 20
74.683077
 30
0.0
 10
51.001835
 20
74.472579
 30
0.0
  0
SPLINE
  5
28a
100
AcDbEntity
  8
trous
 62
7
100
AcDbSpline
 70
8
 71
3
 72
8
 73
4
 74
0
 40
0
 40
0
 40
0
 40
0
 40
1
 40
1
 40
1
 40
1
 10
51.001835
 20
74.472579
 30
0.0
 10
51.123367
 20
74.262080
 30
0.0
 10
51.123367
 20
74.002736
 30
0.0
 10
51.001835
 20
73.792237
 30
0.0
  0
SPLINE
  5
28b
100
AcDbEntity
  8
trous
 62
7
100
AcDbSpline
 70
8
 71
3
 72
8
 73
4
 74
0
 40
0
 40
0
 40
0
 40
0
 40
1
 40
1
 40
1
 40
1
 10
51.001835
 20
73.792237
 30
0.0
 10
50.880304
 20
73.581739
 30
0.0
 10
50.655705
 20
73.452067
 30
0.0
 10
50.412642
 20
73.452067
 30
0.0
  0
LWPOLYLINE
  5
28c
100
AcDbEntity
  8
trous
 62
7
100
AcDbPolyline
 90
1
 70
1
 10
55.412643
 20
73.452067
 30
0.0
  0
SPLINE
  5
28d
100
AcDbEntity
  8
trous
 62
7
100
AcDbSpline
 70
8
 71
3
 72
8
 73
4
 74
0
 40
0
 40
0
 40
0
 40
0
 40
1
 40
1
 40
1
 40
1
 10
104.720440
 20
65.132306
 30
0.0
 10
104.720440
 20
66.771491
 30
0.0
 10
103.845946
 20
68.286160
 30
0.0
 10
102.426370
 20
69.105752
 30
0.0
  0
SPLINE
  5
28e
100
AcDbEntity
  8
trous
 62
7
100
AcDbSpline
 70
8
 71
3
 72
8
 73
4
 74
0
 40
0
 40
0
 40
0
 40
0
 40
1
 40
1
 40
1
 40
1
 10
102.426370
 20
69.105752
 30
0.0
 10
101.006794
 20
69.925345
 30
0.0
 10
99.257805
 20
69.925345
 30
0.0
 10
97.838229
 20
69.105752
 30
0.0
  0
SPLINE
  5
28f
100
AcDbEntity
  8
trous
 62
7
100
AcDbSpline
 70
8
 71
3
 72
8
 73
4
 74
0
 40
0
 40
0
 40
0
 40
0
 40
1
 40
1
 40
1
 40
1
 10
97.838229
 20
69.105752
 30
0.0
 10
96.418653
 20
68.286160
 30
0.0
 10
95.544158
 20
66.771491
 30
0.0
 10
95.544158
 20
65.132306
 30
0.0
  0
SPLINE
  5
290
100
AcDbEntity
  8
trous
 62
7
100
AcDbSpline
 70
8
 71
3
 72
8
 73
4
 74
0
 40
0
 40
0
 40
0
 40
0
 40
1
 40
1
 40
1
 40
1
 10
95.544158
 20
65.132306
 30
0.0
 10
95.544158
 20
63.493121
 30
0.0
 10
96.418653
 20
61.978452
 30
0.0
 10
97.838229
 20
61.158859
 30
0.0
  0
SPLINE
  5
291
100
AcDbEntity
  8
trous
 62
7
100
AcDbSpline
 70
8
 71
3
 72
8
 73
4
 74
0
 40
0
 40
0
 40
0
 40
0
 40
1
 40
1
 40
1
 40
1
 10
97.838229
 20
61.158859
 30
0.0
 10
99.257805
 20
60.339267
 30
0.0
 10
101.006794
 20
60.339267
 30
0.0
 10
102.426370
 20
61.158859
 30
0.0
  0
SPLINE
  5
292
100
AcDbEntity
  8
trous
 62
7
100
AcDbSpline
 70
8
 71
3
 72
8
 73
4
 74
0
 40
0
 40
0
 40
0
 40
0
 40
1
 40
1
 40
1
 40
1
 10
102.426370
 20
61.158859
 30
0.0
 10
103.845946
 20
61.978452
 30
0.0
 10
104.720440
 20
63.493121
 30
0.0
 10
104.720440
 20
65.132306
 30
0.0
  0
LWPOLYLINE
  5
293
100
AcDbEntity
  8
trous
 62
7
100
AcDbPolyline
 90
1
 70
1
 10
50.412642
 20
73.452067
 30
0.0
  0
SPLINE
  5
294
100
AcDbEntity
  8
trous
 62
7
100
AcDbSpline
 70
8
 71
3
 72
8
 73
4
 74
0
 40
0
 40
0
 40
0
 40
0
 40
1
 40
1
 40
1
 40
1
 10
104.720440
 20
29.132314
 30
0.0
 10
104.720440
 20
30.771499
 30
0.0
 10
103.845946
 20
32.286169
 30
0.0
 10
102.426370
 20
33.105761
 30
0.0
  0
SPLINE
  5
295
100
AcDbEntity
  8
trous
 62
7
100
AcDbSpline
 70
8
 71
3
 72
8
 73
4
 74
0
 40
0
 40
0
 40
0
 40
0
 40
1
 40
1
 40
1
 40
1
 10
102.426370
 20
33.105761
 30
0.0
 10
101.006794
 20
33.925353
 30
0.0
 10
99.257805
 20
33.925353
 30
0.0
 10
97.838229
 20
33.105761
 30
0.0
  0
SPLINE
  5
296
100
AcDbEntity
  8
trous
 62
7
100
AcDbSpline
 70
8
 71
3
 72
8
 73
4
 74
0
 40
0
 40
0
 40
0
 40
0
 40
1
 40
1
 40
1
 40
1
 10
97.838229
 20
33.105761
 30
0.0
 10
96.418653
 20
32.286169
 30
0.0
 10
95.544158
 20
30.771499
 30
0.0
 10
95.544158
 20
29.132314
 30
0.0
  0
SPLINE
  5
297
100
AcDbEntity
  8
trous
 62
7
100
AcDbSpline
 70
8
 71
3
 72
8
 73
4
 74
0
 40
0
 40
0
 40
0
 40
0
 40
1
 40
1
 40
1
 40
1
 10
95.544158
 20
29.132314
 30
0.0
 10
95.544158
 20
27.493130
 30
0.0
 10
96.418653
 20
25.978460
 30
0.0
 10
97.838229
 20
25.158868
 30
0.0
  0
SPLINE
  5
298
100
AcDbEntity
  8
trous
 62
7
100
AcDbSpline
 70
8
 71
3
 72
8
 73
4
 74
0
 40
0
 40
0
 40
0
 40
0
 40
1
 40
1
 40
1
 40
1
 10
97.838229
 20
25.158868
 30
0.0
 10
99.257805
 20
24.339275
 30
0.0
 10
101.006794
 20
24.339275
 30
0.0
 10
102.426370
 20
25.158868
 30
0.0
  0
SPLINE
  5
299
100
AcDbEntity
  8
trous
 62
7
100
AcDbSpline
 70
8
 71
3
 72
8
 73
4
 74
0
 40
0
 40
0
 40
0
 40
0
 40
1
 40
1
 40
1
 40
1
 10
102.426370
 20
25.158868
 30
0.0
 10
103.845946
 20
25.978460
 30
0.0
 10
104.720440
 20
27.493130
 30
0.0
 10
104.720440
 20
29.132314
 30
0.0
  0
LWPOLYLINE
  5
29a
100
AcDbEntity
  8
trous
 62
7
100
AcDbPolyline
 90
1
 70
1
 10
104.720440
 20
65.132306
 30
0.0
  0
SPLINE
  5
29b
100
AcDbEntity
  8
trous
 62
7
100
AcDbSpline
 70
8
 71
3
 72
8
 73
4
 74
0
 40
0
 40
0
 40
0
 40
0
 40
1
 40
1
 40
1
 40
1
 10
176.720447
 20
29.132314
 30
0.0
 10
176.720447
 20
30.771499
 30
0.0
 10
175.845952
 20
32.286169
 30
0.0
 10
174.426377
 20
33.105761
 30
0.0
  0
SPLINE
  5
29c
100
AcDbEntity
  8
trous
 62
7
100
AcDbSpline
 70
8
 71
3
 72
8
 73
4
 74
0
 40
0
 40
0
 40
0
 40
0
 40
1
 40
1
 40
1
 40
1
 10
174.426377
 20
33.105761
 30
0.0
 10
173.006801
 20
33.925353
 30
0.0
 10
171.257811
 20
33.925353
 30
0.0
 10
169.838236
 20
33.105761
 30
0.0
  0
SPLINE
  5
29d
100
AcDbEntity
  8
trous
 62
7
100
AcDbSpline
 70
8
 71
3
 72
8
 73
4
 74
0
 40
0
 40
0
 40
0
 40
0
 40
1
 40
1
 40
1
 40
1
 10
169.838236
 20
33.105761
 30
0.0
 10
168.418660
 20
32.286169
 30
0.0
 10
167.544165
 20
30.771499
 30
0.0
 10
167.544165
 20
29.132314
 30
0.0
  0
SPLINE
  5
29e
100
AcDbEntity
  8
trous
 62
7
100
AcDbSpline
 70
8
 71
3
 72
8
 73
4
 74
0
 40
0
 40
0
 40
0
 40
0
 40
1
 40
1
 40
1
 40
1
 10
167.544165
 20
29.132314
 30
0.0
 10
167.544165
 20
27.493130
 30
0.0
 10
168.418660
 20
25.978460
 30
0.0
 10
169.838236
 20
25.158868
 30
0.0
  0
SPLINE
  5
29f
100
AcDbEntity
  8
trous
 62
7
100
AcDbSpline
 70
8
 71
3
 72
8
 73
4
 74
0
 40
0
 40
0
 40
0
 40
0
 40
1
 40
1
 40
1
 40
1
 10
169.838236
 20
25.158868
 30
0.0
 10
171.257811
 20
24.339275
 30
0.0
 10
173.006801
 20
24.339275
 30
0.0
 10
174.426377
 20
25.158868
 30
0.0
  0
SPLINE
  5
2a0
100
AcDbEntity
  8
trous
 62
7
100
AcDbSpline
 70
8
 71
3
 72
8
 73
4
 74
0
 40
0
 40
0
 40
0
 40
0
 40
1
 40
1
 40
1
 40
1
 10
174.426377
 20
25.158868
 30
0.0
 10
175.845952
 20
25.978460
 30
0.0
 10
176.720447
 20
27.493130
 30
0.0
 10
176.720447
 20
29.132314
 30
0.0
  0
LWPOLYLINE
  5
2a1
100
AcDbEntity
  8
trous
 62
7
100
AcDbPolyline
 90
1
 70
1
 10
104.720440
 20
29.132314
 30
0.0
  0
SPLINE
  5
2a2
100
AcDbEntity
  8
trous
 62
7
100
AcDbSpline
 70
8
 71
3
 72
8
 73
4
 74
0
 40
0
 40
0
 40
0
 40
0
 40
1
 40
1
 40
1
 40
1
 10
176.720447
 20
65.132306
 30
0.0
 10
176.720447
 20
66.771491
 30
0.0
 10
175.845952
 20
68.286160
 30
0.0
 10
174.426377
 20
69.105752
 30
0.0
  0
SPLINE
  5
2a3
100
AcDbEntity
  8
trous
 62
7
100
AcDbSpline
 70
8
 71
3
 72
8
 73
4
 74
0
 40
0
 40
0
 40
0
 40
0
 40
1
 40
1
 40
1
 40
1
 10
174.426377
 20
69.105752
 30
0.0
 10
173.006801
 20
69.925345
 30
0.0
 10
171.257811
 20
69.925345
 30
0.0
 10
169.838236
 20
69.105752
 30
0.0
  0
SPLINE
  5
2a4
100
AcDbEntity
  8
trous
 62
7
100
AcDbSpline
 70
8
 71
3
 72
8
 73
4
 74
0
 40
0
 40
0
 40
0
 40
0
 40
1
 40
1
 40
1
 40
1
 10
169.838236
 20
69.105752
 30
0.0
 10
168.418660
 20
68.286160
 30
0.0
 10
167.544165
 20
66.771491
 30
0.0
 10
167.544165
 20
65.132306
 30
0.0
  0
SPLINE
  5
2a5
100
AcDbEntity
  8
trous
 62
7
100
AcDbSpline
 70
8
 71
3
 72
8
 73
4
 74
0
 40
0
 40
0
 40
0
 40
0
 40
1
 40
1
 40
1
 40
1
 10
167.544165
 20
65.132306
 30
0.0
 10
167.544165
 20
63.493121
 30
0.0
 10
168.418660
 20
61.978452
 30
0.0
 10
169.838236
 20
61.158859
 30
0.0
  0
SPLINE
  5
2a6
100
AcDbEntity
  8
trous
 62
7
100
AcDbSpline
 70
8
 71
3
 72
8
 73
4
 74
0
 40
0
 40
0
 40
0
 40
0
 40
1
 40
1
 40
1
 40
1
 10
169.838236
 20
61.158859
 30
0.0
 10
171.257811
 20
60.339267
 30
0.0
 10
173.006801
 20
60.339267
 30
0.0
 10
174.426377
 20
61.158859
 30
0.0
  0
SPLINE
  5
2a7
100
AcDbEntity
  8
trous
 62
7
100
AcDbSpline
 70
8
 71
3
 72
8
 73
4
 74
0
 40
0
 40
0
 40
0
 40
0
 40
1
 40
1
 40
1
 40
1
 10
174.426377
 20
61.158859
 30
0.0
 10
175.845952
 20
61.978452
 30
0.0
 10
176.720447
 20
63.493121
 30
0.0
 10
176.720447
 20
65.132306
 30
0.0
  0
LWPOLYLINE
  5
2a8
100
AcDbEntity
  8
trous
 62
7
100
AcDbPolyline
 90
1
 70
1
 10
176.720447
 20
29.132314
 30
0.0
  0
SPLINE
  5
2a9
100
AcDbEntity
  8
trous
 62
7
100
AcDbSpline
 70
8
 71
3
 72
8
 73
4
 74
0
 40
0
 40
0
 40
0
 40
0
 40
1
 40
1
 40
1
 40
1
 10
176.720447
 20
101.132305
 30
0.0
 10
176.720447
 20
102.771490
 30
0.0
 10
175.845952
 20
104.286159
 30
0.0
 10
174.426377
 20
105.105752
 30
0.0
  0
SPLINE
  5
2aa
100
AcDbEntity
  8
trous
 62
7
100
AcDbSpline
 70
8
 71
3
 72
8
 73
4
 74
0
 40
0
 40
0
 40
0
 40
0
 40
1
 40
1
 40
1
 40
1
 10
174.426377
 20
105.105752
 30
0.0
 10
173.006801
 20
105.925344
 30
0.0
 10
171.257811
 20
105.925344
 30
0.0
 10
169.838236
 20
105.105752
 30
0.0
  0
SPLINE
  5
2ab
100
AcDbEntity
  8
trous
 62
7
100
AcDbSpline
 70
8
 71
3
 72
8
 73
4
 74
0
 40
0
 40
0
 40
0
 40
0
 40
1
 40
1
 40
1
 40
1
 10
169.838236
 20
105.105752
 30
0.0
 10
168.418660
 20
104.286159
 30
0.0
 10
167.544165
 20
102.771490
 30
0.0
 10
167.544165
 20
101.132305
 30
0.0
  0
SPLINE
  5
2ac
100
AcDbEntity
  8
trous
 62
7
100
AcDbSpline
 70
8
 71
3
 72
8
 73
4
 74
0
 40
0
 40
0
 40
0
 40
0
 40
1
 40
1
 40
1
 40
1
 10
167.544165
 20
101.132305
 30
0.0
 10
167.544165
 20
99.493120
 30
0.0
 10
168.418660
 20
97.978451
 30
0.0
 10
169.838236
 20
97.158859
 30
0.0
  0
SPLINE
  5
2ad
100
AcDbEntity
  8
trous
 62
7
100
AcDbSpline
 70
8
 71
3
 72
8
 73
4
 74
0
 40
0
 40
0
 40
0
 40
0
 40
1
 40
1
 40
1
 40
1
 10
169.838236
 20
97.158859
 30
0.0
 10
171.257811
 20
96.339266
 30
0.0
 10
173.006801
 20
96.339266
 30
0.0
 10
174.426377
 20
97.158859
 30
0.0
  0
SPLINE
  5
2ae
100
AcDbEntity
  8
trous
 62
7
100
AcDbSpline
 70
8
 71
3
 72
8
 73
4
 74
0
 40
0
 40
0
 40
0
 40
0
 40
1
 40
1
 40
1
 40
1
 10
174.426377
 20
97.158859
 30
0.0
 10
175.845952
 20
97.978451
 30
0.0
 10
176.720447
 20
99.493120
 30
0.0
 10
176.720447
 20
101.132305
 30
0.0
  0
LWPOLYLINE
  5
2af
100
AcDbEntity
  8
trous
 62
7
100
AcDbPolyline
 90
1
 70
1
 10
176.720447
 20
65.132306
 30
0.0
  0
LWPOLYLINE
  5
2b0
100
AcDbEntity
  8
trous
 62
7
100
AcDbPolyline
 90
1
 70
1
 10
176.720447
 20
101.132305
 30
0.0
  0
LWPOLYLINE
  5
2b1
100
AcDbEntity
  8
waveforms
 62
7
100
AcDbPolyline
 90
3
 70
0
 10
157.797461
 20
111.397530
 30
0.0
 10
159.678214
 20
115.159035
 30
0.0
 10
161.558965
 20
111.397530
 30
0.0
  0
LWPOLYLINE
  5
2b2
100
AcDbEntity
  8
waveforms
 62
7
100
AcDbPolyline
 90
3
 70
0
 10
165.521793
 20
115.873707
 30
0.0
 10
169.283297
 20
119.635211
 30
0.0
 10
169.283297
 20
115.873707
 30
0.0
  0
LWPOLYLINE
  5
2b3
100
AcDbEntity
  8
waveforms
 62
7
100
AcDbPolyline
 90
3
 70
0
 10
174.507160
 20
115.878116
 30
0.0
 10
174.507160
 20
119.639621
 30
0.0
 10
178.268664
 20
115.878116
 30
0.0
  0
LWPOLYLINE
  5
2b4
100
AcDbEntity
  8
waveforms
 62
7
100
AcDbPolyline
 90
5
 70
0
 10
182.301824
 20
111.525282
 30
0.0
 10
182.301824
 20
115.286787
 30
0.0
 10
184.182574
 20
115.286787
 30
0.0
 10
184.182574
 20
111.525282
 30
0.0
 10
186.063325
 20
111.525282
 30
0.0
  0
SPLINE
  5
2b5
100
AcDbEntity
  8
waveforms
 62
7
100
AcDbSpline
 70
8
 71
3
 72
8
 73
4
 74
0
 40
0
 40
0
 40
0
 40
0
 40
1
 40
1
 40
1
 40
1
 10
153.322590
 20
105.661795
 30
0.0
 10
153.322590
 20
105.661795
 30
0.0
 10
153.584872
 20
107.542546
 30
0.0
 10
154.262967
 20
107.542546
 30
0.0
  0
SPLINE
  5
2b6
100
AcDbEntity
  8
waveforms
 62
7
100
AcDbSpline
 70
8
 71
3
 72
8
 73
4
 74
0
 40
0
 40
0
 40
0
 40
0
 40
1
 40
1
 40
1
 40
1
 10
154.262967
 20
107.542546
 30
0.0
 10
154.941058
 20
107.542546
 30
0.0
 10
155.436911
 20
103.781041
 30
0.0
 10
156.143717
 20
103.781041
 30
0.0
  0
SPLINE
  5
2b7
100
AcDbEntity
  8
waveforms
 62
7
100
AcDbSpline
 70
8
 71
3
 72
8
 73
4
 74
0
 40
0
 40
0
 40
0
 40
0
 40
1
 40
1
 40
1
 40
1
 10
156.143717
 20
103.781041
 30
0.0
 10
156.850524
 20
103.781041
 30
0.0
 10
157.084094
 20
105.661795
 30
0.0
 10
157.084094
 20
105.661795
 30
0.0
  0
LWPOLYLINE
  5
2b8
100
AcDbEntity
  8
waveforms
 62
7
100
AcDbPolyline
 90
5
 70
0
 10
186.772077
 20
103.779884
 30
0.0
 10
186.772077
 20
107.541389
 30
0.0
 10
187.403780
 20
107.541389
 30
0.0
 10
187.403780
 20
103.779884
 30
0.0
 10
190.533576
 20
103.779884
 30
0.0
  0
LWPOLYLINE
  5
2b9
100
AcDbEntity
  8
waveforms
 62
7
100
AcDbPolyline
 90
3
 70
0
 10
157.797463
 20
75.397529
 30
0.0
 10
159.678216
 20
79.159034
 30
0.0
 10
161.558967
 20
75.397529
 30
0.0
  0
LWPOLYLINE
  5
2ba
100
AcDbEntity
  8
waveforms
 62
7
100
AcDbPolyline
 90
3
 70
0
 10
165.521794
 20
79.873706
 30
0.0
 10
169.283299
 20
83.635210
 30
0.0
 10
169.283299
 20
79.873706
 30
0.0
  0
LWPOLYLINE
  5
2bb
100
AcDbEntity
  8
waveforms
 62
7
100
AcDbPolyline
 90
3
 70
0
 10
174.507162
 20
79.878115
 30
0.0
 10
174.507162
 20
83.639620
 30
0.0
 10
178.268666
 20
79.878115
 30
0.0
  0
LWPOLYLINE
  5
2bc
100
AcDbEntity
  8
waveforms
 62
7
100
AcDbPolyline
 90
5
 70
0
 10
182.301825
 20
75.525281
 30
0.0
 10
182.301825
 20
79.286786
 30
0.0
 10
184.182576
 20
79.286786
 30
0.0
 10
184.182576
 20
75.525281
 30
0.0
 10
186.063327
 20
75.525281
 30
0.0
  0
SPLINE
  5
2bd
100
AcDbEntity
  8
waveforms
 62
7
100
AcDbSpline
 70
8
 71
3
 72
8
 73
4
 74
0
 40
0
 40
0
 40
0
 40
0
 40
1
 40
1
 40
1
 40
1
 10
153.322591
 20
69.661794
 30
0.0
 10
153.322591
 20
69.661794
 30
0.0
 10
153.584874
 20
71.542545
 30
0.0
 10
154.262968
 20
71.542545
 30
0.0
  0
SPLINE
  5
2be
100
AcDbEntity
  8
waveforms
 62
7
100
AcDbSpline
 70
8
 71
3
 72
8
 73
4
 74
0
 40
0
 40
0
 40
0
 40
0
 40
1
 40
1
 40
1
 40
1
 10
154.262968
 20
71.542545
 30
0.0
 10
154.941060
 20
71.542545
 30
0.0
 10
155.436912
 20
67.781040
 30
0.0
 10
156.143719
 20
67.781040
 30
0.0
  0
SPLINE
  5
2bf
100
AcDbEntity
  8
waveforms
 62
7
100
AcDbSpline
 70
8
 71
3
 72
8
 73
4
 74
0
 40
0
 40
0
 40
0
 40
0
 40
1
 40
1
 40
1
 40
1
 10
156.143719
 20
67.781040
 30
0.0
 10
156.850526
 20
67.781040
 30
0.0
 10
157.084096
 20
69.661794
 30
0.0
 10
157.084096
 20
69.661794
 30
0.0
  0
LWPOLYLINE
  5
2c0
100
AcDbEntity
  8
waveforms
 62
7
100
AcDbPolyline
 90
5
 70
0
 10
186.772078
 20
67.779883
 30
0.0
 10
186.772078
 20
71.541388
 30
0.0
 10
187.403782
 20
71.541388
 30
0.0
 10
187.403782
 20
67.779883
 30
0.0
 10
190.533577
 20
67.779883
 30
0.0
  0
LWPOLYLINE
  5
2c1
100
AcDbEntity
  8
waveforms
 62
7
100
AcDbPolyline
 90
3
 70
0
 10
157.797461
 20
39.397535
 30
0.0
 10
159.678214
 20
43.159040
 30
0.0
 10
161.558965
 20
39.397535
 30
0.0
  0
LWPOLYLINE
  5
2c2
100
AcDbEntity
  8
waveforms
 62
7
100
AcDbPolyline
 90
3
 70
0
 10
165.521793
 20
43.873712
 30
0.0
 10
169.283297
 20
47.635216
 30
0.0
 10
169.283297
 20
43.873712
 30
0.0
  0
LWPOLYLINE
  5
2c3
100
AcDbEntity
  8
waveforms
 62
7
100
AcDbPolyline
 90
3
 70
0
 10
174.507160
 20
43.878121
 30
0.0
 10
174.507160
 20
47.639626
 30
0.0
 10
178.268664
 20
43.878121
 30
0.0
  0
LWPOLYLINE
  5
2c4
100
AcDbEntity
  8
waveforms
 62
7
100
AcDbPolyline
 90
5
 70
0
 10
182.301824
 20
39.525287
 30
0.0
 10
182.301824
 20
43.286791
 30
0.0
 10
184.182574
 20
43.286791
 30
0.0
 10
184.182574
 20
39.525287
 30
0.0
 10
186.063325
 20
39.525287
 30
0.0
  0
SPLINE
  5
2c5
100
AcDbEntity
  8
waveforms
 62
7
100
AcDbSpline
 70
8
 71
3
 72
8
 73
4
 74
0
 40
0
 40
0
 40
0
 40
0
 40
1
 40
1
 40
1
 40
1
 10
153.322590
 20
33.661800
 30
0.0
 10
153.322590
 20
33.661800
 30
0.0
 10
153.584872
 20
35.542551
 30
0.0
 10
154.262967
 20
35.542551
 30
0.0
  0
SPLINE
  5
2c6
100
AcDbEntity
  8
waveforms
 62
7
100
AcDbSpline
 70
8
 71
3
 72
8
 73
4
 74
0
 40
0
 40
0
 40
0
 40
0
 40
1
 40
1
 40
1
 40
1
 10
154.262967
 20
35.542551
 30
0.0
 10
154.941058
 20
35.542551
 30
0.0
 10
155.436911
 20
31.781046
 30
0.0
 10
156.143717
 20
31.781046
 30
0.0
  0
SPLINE
  5
2c7
100
AcDbEntity
  8
waveforms
 62
7
100
AcDbSpline
 70
8
 71
3
 72
8
 73
4
 74
0
 40
0
 40
0
 40
0
 40
0
 40
1
 40
1
 40
1
 40
1
 10
156.143717
 20
31.781046
 30
0.0
 10
156.850524
 20
31.781046
 30
0.0
 10
157.084094
 20
33.661800
 30
0.0
 10
157.084094
 20
33.661800
 30
0.0
  0
LWPOLYLINE
  5
2c8
100
AcDbEntity
  8
waveforms
 62
7
100
AcDbPolyline
 90
5
 70
0
 10
186.772077
 20
31.779889
 30
0.0
 10
186.772077
 20
35.541394
 30
0.0
 10
187.403780
 20
35.541394
 30
0.0
 10
187.403780
 20
31.779889
 30
0.0
 10
190.533576
 20
31.779889
 30
0.0
  0
LWPOLYLINE
  5
2c9
100
AcDbEntity
  8
facade
 62
7
100
AcDbPolyline
 90
2
 70
0
 10
0.132292
 20
130.132306
 30
0.0
 10
480.132284
 20
130.132306
 30
0.0
  0
LWPOLYLINE
  5
2ca
100
AcDbEntity
  8
facade
 62
7
100
AcDbPolyline
 90
2
 70
0
 10
0.132292
 20
0.132288
 30
0.0
 10
0.132292
 20
130.132306
 30
0.0
  0
LWPOLYLINE
  5
2cb
100
AcDbEntity
  8
facade
 62
7
100
AcDbPolyline
 90
2
 70
0
 10
480.132284
 20
0.132288
 30
0.0
 10
0.132292
 20
0.132288
 30
0.0
  0
LWPOLYLINE
  5
2cc
100
AcDbEntity
  8
facade
 62
7
100
AcDbPolyline
 90
2
 70
0
 10
480.132284
 20
130.132306
 30
0.0
 10
480.132284
 20
0.132288
 30
0.0
  0
LWPOLYLINE
  5
2cd
100
AcDbEntity
  8
reperes
 62
7
100
AcDbPolyline
 90
2
 70
0
 10
139.743846
 20
58.876920
 30
0.0
 10
142.432295
 20
54.220389
 30
0.0
  0
LWPOLYLINE
  5
2ce
100
AcDbEntity
  8
reperes
 62
7
100
AcDbPolyline
 90
2
 70
0
 10
142.389905
 20
61.519482
 30
0.0
 10
147.044215
 20
58.832315
 30
0.0
  0
LWPOLYLINE
  5
2cf
100
AcDbEntity
  8
reperes
 62
7
100
AcDbPolyline
 90
2
 70
0
 10
143.364354
 20
65.132314
 30
0.0
 10
148.732291
 20
65.132314
 30
0.0
  0
LWPOLYLINE
  5
2d0
100
AcDbEntity
  8
reperes
 62
7
100
AcDbPolyline
 90
2
 70
0
 10
142.387607
 20
68.743824
 30
0.0
 10
147.044208
 20
71.432314
 30
0.0
  0
LWPOLYLINE
  5
2d1
100
AcDbEntity
  8
reperes
 62
7
100
AcDbPolyline
 90
2
 70
0
 10
139.745049
 20
71.389803
 30
0.0
 10
142.432286
 20
76.044232
 30
0.0
  0
LWPOLYLINE
  5
2d2
100
AcDbEntity
  8
reperes
 62
7
100
AcDbPolyline
 90
2
 70
0
 10
136.132284
 20
72.364374
 30
0.0
 10
136.132285
 20
77.732305
 30
0.0
  0
LWPOLYLINE
  5
2d3
100
AcDbEntity
  8
reperes
 62
7
100
AcDbPolyline
 90
2
 70
0
 10
132.520845
 20
71.387503
 30
0.0
 10
129.832286
 20
76.044226
 30
0.0
  0
LWPOLYLINE
  5
2d4
100
AcDbEntity
  8
reperes
 62
7
100
AcDbPolyline
 90
2
 70
0
 10
129.874868
 20
68.745026
 30
0.0
 10
125.220368
 20
71.432307
 30
0.0
  0
LWPOLYLINE
  5
2d5
100
AcDbEntity
  8
reperes
 62
7
100
AcDbPolyline
 90
2
 70
0
 10
128.900609
 20
65.132304
 30
0.0
 10
123.532291
 20
65.132308
 30
0.0
  0
LWPOLYLINE
  5
2d6
100
AcDbEntity
  8
reperes
 62
7
100
AcDbPolyline
 90
2
 70
0
 10
129.877191
 20
61.520919
 30
0.0
 10
125.220372
 20
58.832307
 30
0.0
  0
LWPOLYLINE
  5
2d7
100
AcDbEntity
  8
reperes
 62
7
100
AcDbPolyline
 90
2
 70
0
 10
132.519503
 20
58.874765
 30
0.0
 10
129.832292
 20
54.220389
 30
0.0
  0
LWPOLYLINE
  5
2d8
100
AcDbEntity
  8
reperes
 62
7
100
AcDbPolyline
 90
2
 70
0
 10
180.451183
 20
103.383618
 30
0.0
 10
185.836386
 20
104.826577
 30
0.0
  0
LWPOLYLINE
  5
2d9
100
AcDbEntity
  8
reperes
 62
7
100
AcDbPolyline
 90
2
 70
0
 10
178.220689
 20
107.242979
 30
0.0
 10
182.164385
 20
111.186670
 30
0.0
  0
LWPOLYLINE
  5
2da
100
AcDbEntity
  8
reperes
 62
7
100
AcDbPolyline
 90
2
 70
0
 10
174.359636
 20
109.467155
 30
0.0
 10
175.804291
 20
114.858678
 30
0.0
  0
LWPOLYLINE
  5
2db
100
AcDbEntity
  8
reperes
 62
7
100
AcDbPolyline
 90
2
 70
0
 10
169.903199
 20
109.473645
 30
0.0
 10
168.460285
 20
114.858678
 30
0.0
  0
LWPOLYLINE
  5
2dc
100
AcDbEntity
  8
reperes
 62
7
100
AcDbPolyline
 90
2
 70
0
 10
166.043563
 20
107.243303
 30
0.0
 10
162.100189
 20
111.186679
 30
0.0
  0
LWPOLYLINE
  5
2dd
100
AcDbEntity
  8
reperes
 62
7
100
AcDbPolyline
 90
2
 70
0
 10
163.819662
 20
103.381942
 30
0.0
 10
158.428186
 20
104.826586
 30
0.0
  0
LWPOLYLINE
  5
2de
100
AcDbEntity
  8
reperes
 62
7
100
AcDbPolyline
 90
2
 70
0
 10
108.451179
 20
103.383618
 30
0.0
 10
113.836381
 20
104.826577
 30
0.0
  0
LWPOLYLINE
  5
2df
100
AcDbEntity
  8
reperes
 62
7
100
AcDbPolyline
 90
2
 70
0
 10
106.220685
 20
107.242979
 30
0.0
 10
110.164380
 20
111.186670
 30
0.0
  0
LWPOLYLINE
  5
2e0
100
AcDbEntity
  8
reperes
 62
7
100
AcDbPolyline
 90
2
 70
0
 10
102.359632
 20
109.467155
 30
0.0
 10
103.804287
 20
114.858678
 30
0.0
  0
LWPOLYLINE
  5
2e1
100
AcDbEntity
  8
reperes
 62
7
100
AcDbPolyline
 90
2
 70
0
 10
97.903195
 20
109.473645
 30
0.0
 10
96.460280
 20
114.858678
 30
0.0
  0
LWPOLYLINE
  5
2e2
100
AcDbEntity
  8
reperes
 62
7
100
AcDbPolyline
 90
2
 70
0
 10
94.043559
 20
107.243303
 30
0.0
 10
90.100185
 20
111.186679
 30
0.0
  0
LWPOLYLINE
  5
2e3
100
AcDbEntity
  8
reperes
 62
7
100
AcDbPolyline
 90
2
 70
0
 10
91.819657
 20
103.381942
 30
0.0
 10
86.428181
 20
104.826586
 30
0.0
  0
LWPOLYLINE
  5
2e4
100
AcDbEntity
  8
reperes
 62
7
100
AcDbPolyline
 90
2
 70
0
 10
108.451179
 20
67.383618
 30
0.0
 10
113.836381
 20
68.826578
 30
0.0
  0
LWPOLYLINE
  5
2e5
100
AcDbEntity
  8
reperes
 62
7
100
AcDbPolyline
 90
2
 70
0
 10
106.220685
 20
71.242980
 30
0.0
 10
110.164380
 20
75.186671
 30
0.0
  0
LWPOLYLINE
  5
2e6
100
AcDbEntity
  8
reperes
 62
7
100
AcDbPolyline
 90
2
 70
0
 10
102.359632
 20
73.467156
 30
0.0
 10
103.804287
 20
78.858679
 30
0.0
  0
LWPOLYLINE
  5
2e7
100
AcDbEntity
  8
reperes
 62
7
100
AcDbPolyline
 90
2
 70
0
 10
97.903195
 20
73.473645
 30
0.0
 10
96.460280
 20
78.858679
 30
0.0
  0
LWPOLYLINE
  5
2e8
100
AcDbEntity
  8
reperes
 62
7
100
AcDbPolyline
 90
2
 70
0
 10
94.043559
 20
71.243304
 30
0.0
 10
90.100185
 20
75.186680
 30
0.0
  0
LWPOLYLINE
  5
2e9
100
AcDbEntity
  8
reperes
 62
7
100
AcDbPolyline
 90
2
 70
0
 10
91.819657
 20
67.381943
 30
0.0
 10
86.428181
 20
68.826587
 30
0.0
  0
LWPOLYLINE
  5
2ea
100
AcDbEntity
  8
reperes
 62
7
100
AcDbPolyline
 90
2
 70
0
 10
108.451192
 20
31.383619
 30
0.0
 10
113.836395
 20
32.826578
 30
0.0
  0
LWPOLYLINE
  5
2eb
100
AcDbEntity
  8
reperes
 62
7
100
AcDbPolyline
 90
2
 70
0
 10
106.220698
 20
35.242981
 30
0.0
 10
110.164394
 20
39.186671
 30
0.0
  0
LWPOLYLINE
  5
2ec
100
AcDbEntity
  8
reperes
 62
7
100
AcDbPolyline
 90
2
 70
0
 10
102.359645
 20
37.467156
 30
0.0
 10
103.804300
 20
42.858679
 30
0.0
  0
LWPOLYLINE
  5
2ed
100
AcDbEntity
  8
reperes
 62
7
100
AcDbPolyline
 90
2
 70
0
 10
97.903208
 20
37.473646
 30
0.0
 10
96.460294
 20
42.858679
 30
0.0
  0
LWPOLYLINE
  5
2ee
100
AcDbEntity
  8
reperes
 62
7
100
AcDbPolyline
 90
2
 70
0
 10
94.043572
 20
35.243304
 30
0.0
 10
90.100198
 20
39.186681
 30
0.0
  0
LWPOLYLINE
  5
2ef
100
AcDbEntity
  8
reperes
 62
7
100
AcDbPolyline
 90
2
 70
0
 10
91.819671
 20
31.381944
 30
0.0
 10
86.428195
 20
32.826587
 30
0.0
  0
LWPOLYLINE
  5
2f0
100
AcDbEntity
  8
reperes
 62
7
100
AcDbPolyline
 90
2
 70
0
 10
180.451199
 20
67.383618
 30
0.0
 10
185.836402
 20
68.826578
 30
0.0
  0
LWPOLYLINE
  5
2f1
100
AcDbEntity
  8
reperes
 62
7
100
AcDbPolyline
 90
2
 70
0
 10
178.220705
 20
71.242980
 30
0.0
 10
182.164400
 20
75.186671
 30
0.0
  0
LWPOLYLINE
  5
2f2
100
AcDbEntity
  8
reperes
 62
7
100
AcDbPolyline
 90
2
 70
0
 10
174.359652
 20
73.467156
 30
0.0
 10
175.804307
 20
78.858679
 30
0.0
  0
LWPOLYLINE
  5
2f3
100
AcDbEntity
  8
reperes
 62
7
100
AcDbPolyline
 90
2
 70
0
 10
169.903215
 20
73.473645
 30
0.0
 10
168.460300
 20
78.858679
 30
0.0
  0
LWPOLYLINE
  5
2f4
100
AcDbEntity
  8
reperes
 62
7
100
AcDbPolyline
 90
2
 70
0
 10
166.043579
 20
71.243304
 30
0.0
 10
162.100205
 20
75.186680
 30
0.0
  0
LWPOLYLINE
  5
2f5
100
AcDbEntity
  8
reperes
 62
7
100
AcDbPolyline
 90
2
 70
0
 10
163.819677
 20
67.381943
 30
0.0
 10
158.428201
 20
68.826587
 30
0.0
  0
LWPOLYLINE
  5
2f6
100
AcDbEntity
  8
reperes
 62
7
100
AcDbPolyline
 90
2
 70
0
 10
180.451183
 20
31.383619
 30
0.0
 10
185.836386
 20
32.826578
 30
0.0
  0
LWPOLYLINE
  5
2f7
100
AcDbEntity
  8
reperes
 62
7
100
AcDbPolyline
 90
2
 70
0
 10
178.220689
 20
35.242981
 30
0.0
 10
182.164385
 20
39.186671
 30
0.0
  0
LWPOLYLINE
  5
2f8
100
AcDbEntity
  8
reperes
 62
7
100
AcDbPolyline
 90
2
 70
0
 10
174.359636
 20
37.467156
 30
0.0
 10
175.804291
 20
42.858679
 30
0.0
  0
LWPOLYLINE
  5
2f9
100
AcDbEntity
  8
reperes
 62
7
100
AcDbPolyline
 90
2
 70
0
 10
169.903199
 20
37.473646
 30
0.0
 10
168.460285
 20
42.858679
 30
0.0
  0
LWPOLYLINE
  5
2fa
100
AcDbEntity
  8
reperes
 62
7
100
AcDbPolyline
 90
2
 70
0
 10
166.043563
 20
35.243304
 30
0.0
 10
162.100189
 20
39.186681
 30
0.0
  0
LWPOLYLINE
  5
2fb
100
AcDbEntity
  8
reperes
 62
7
100
AcDbPolyline
 90
2
 70
0
 10
163.819662
 20
31.381944
 30
0.0
 10
158.428186
 20
32.826587
 30
0.0
  0
LWPOLYLINE
  5
2fc
100
AcDbEntity
  8
reperes
 62
7
100
AcDbPolyline
 90
2
 70
0
 10
139.743844
 20
22.876929
 30
0.0
 10
142.432292
 20
18.220398
 30
0.0
  0
LWPOLYLINE
  5
2fd
100
AcDbEntity
  8
reperes
 62
7
100
AcDbPolyline
 90
2
 70
0
 10
142.389902
 20
25.519490
 30
0.0
 10
147.044212
 20
22.832323
 30
0.0
  0
LWPOLYLINE
  5
2fe
100
AcDbEntity
  8
reperes
 62
7
100
AcDbPolyline
 90
2
 70
0
 10
143.364351
 20
29.132322
 30
0.0
 10
148.732288
 20
29.132322
 30
0.0
  0
LWPOLYLINE
  5
2ff
100
AcDbEntity
  8
reperes
 62
7
100
AcDbPolyline
 90
2
 70
0
 10
142.387604
 20
32.743832
 30
0.0
 10
147.044206
 20
35.432323
 30
0.0
  0
LWPOLYLINE
  5
300
100
AcDbEntity
  8
reperes
 62
7
100
AcDbPolyline
 90
2
 70
0
 10
139.745046
 20
35.389812
 30
0.0
 10
142.432283
 20
40.044240
 30
0.0
  0
LWPOLYLINE
  5
301
100
AcDbEntity
  8
reperes
 62
7
100
AcDbPolyline
 90
2
 70
0
 10
136.132281
 20
36.364382
 30
0.0
 10
136.132282
 20
41.732314
 30
0.0
  0
LWPOLYLINE
  5
302
100
AcDbEntity
  8
reperes
 62
7
100
AcDbPolyline
 90
2
 70
0
 10
132.520842
 20
35.387511
 30
0.0
 10
129.832283
 20
40.044234
 30
0.0
  0
LWPOLYLINE
  5
303
100
AcDbEntity
  8
reperes
 62
7
100
AcDbPolyline
 90
2
 70
0
 10
129.874865
 20
32.745034
 30
0.0
 10
125.220366
 20
35.432315
 30
0.0
  0
LWPOLYLINE
  5
304
100
AcDbEntity
  8
reperes
 62
7
100
AcDbPolyline
 90
2
 70
0
 10
128.900606
 20
29.132312
 30
0.0
 10
123.532288
 20
29.132316
 30
0.0
  0
LWPOLYLINE
  5
305
100
AcDbEntity
  8
reperes
 62
7
100
AcDbPolyline
 90
2
 70
0
 10
129.877189
 20
25.520928
 30
0.0
 10
125.220370
 20
22.832315
 30
0.0
  0
LWPOLYLINE
  5
306
100
AcDbEntity
  8
reperes
 62
7
100
AcDbPolyline
 90
2
 70
0
 10
132.519500
 20
22.874774
 30
0.0
 10
129.832289
 20
18.220398
 30
0.0
  0
LWPOLYLINE
  5
307
100
AcDbEntity
  8
reperes
 62
7
100
AcDbPolyline
 90
2
 70
0
 10
459.743833
 20
58.876920
 30
0.0
 10
462.432282
 20
54.220389
 30
0.0
  0
LWPOLYLINE
  5
308
100
AcDbEntity
  8
reperes
 62
7
100
AcDbPolyline
 90
2
 70
0
 10
462.389892
 20
61.519482
 30
0.0
 10
467.044202
 20
58.832315
 30
0.0
  0
LWPOLYLINE
  5
309
100
AcDbEntity
  8
reperes
 62
7
100
AcDbPolyline
 90
2
 70
0
 10
463.364341
 20
65.132314
 30
0.0
 10
468.732278
 20
65.132314
 30
0.0
  0
LWPOLYLINE
  5
30a
100
AcDbEntity
  8
reperes
 62
7
100
AcDbPolyline
 90
2
 70
0
 10
462.387594
 20
68.743824
 30
0.0
 10
467.044195
 20
71.432314
 30
0.0
  0
LWPOLYLINE
  5
30b
100
AcDbEntity
  8
reperes
 62
7
100
AcDbPolyline
 90
2
 70
0
 10
459.745036
 20
71.389803
 30
0.0
 10
462.432273
 20
76.044232
 30
0.0
  0
LWPOLYLINE
  5
30c
100
AcDbEntity
  8
reperes
 62
7
100
AcDbPolyline
 90
2
 70
0
 10
456.132271
 20
72.364374
 30
0.0
 10
456.132272
 20
77.732305
 30
0.0
  0
LWPOLYLINE
  5
30d
100
AcDbEntity
  8
reperes
 62
7
100
AcDbPolyline
 90
2
 70
0
 10
452.520832
 20
71.387503
 30
0.0
 10
449.832273
 20
76.044226
 30
0.0
  0
LWPOLYLINE
  5
30e
100
AcDbEntity
  8
reperes
 62
7
100
AcDbPolyline
 90
2
 70
0
 10
449.874855
 20
68.745026
 30
0.0
 10
445.220356
 20
71.432307
 30
0.0
  0
LWPOLYLINE
  5
30f
100
AcDbEntity
  8
reperes
 62
7
100
AcDbPolyline
 90
2
 70
0
 10
448.900596
 20
65.132304
 30
0.0
 10
443.532278
 20
65.132308
 30
0.0
  0
LWPOLYLINE
  5
310
100
AcDbEntity
  8
reperes
 62
7
100
AcDbPolyline
 90
2
 70
0
 10
449.877179
 20
61.520919
 30
0.0
 10
445.220359
 20
58.832307
 30
0.0
  0
LWPOLYLINE
  5
311
100
AcDbEntity
  8
reperes
 62
7
100
AcDbPolyline
 90
2
 70
0
 10
452.519490
 20
58.874765
 30
0.0
 10
449.832279
 20
54.220389
 30
0.0
  0
LWPOLYLINE
  5
312
100
AcDbEntity
  8
reperes
 62
7
100
AcDbPolyline
 90
2
 70
0
 10
45.743854
 20
94.876917
 30
0.0
 10
48.432303
 20
90.220386
 30
0.0
  0
LWPOLYLINE
  5
313
100
AcDbEntity
  8
reperes
 62
7
100
AcDbPolyline
 90
2
 70
0
 10
48.389913
 20
97.519479
 30
0.0
 10
53.044223
 20
94.832311
 30
0.0
  0
LWPOLYLINE
  5
314
100
AcDbEntity
  8
reperes
 62
7
100
AcDbPolyline
 90
2
 70
0
 10
49.364362
 20
101.132310
 30
0.0
 10
54.732299
 20
101.132310
 30
0.0
  0
LWPOLYLINE
  5
315
100
AcDbEntity
  8
reperes
 62
7
100
AcDbPolyline
 90
2
 70
0
 10
48.387615
 20
104.743820
 30
0.0
 10
53.044217
 20
107.432311
 30
0.0
  0
LWPOLYLINE
  5
316
100
AcDbEntity
  8
reperes
 62
7
100
AcDbPolyline
 90
2
 70
0
 10
45.745057
 20
107.389800
 30
0.0
 10
48.432294
 20
112.044229
 30
0.0
  0
LWPOLYLINE
  5
317
100
AcDbEntity
  8
reperes
 62
7
100
AcDbPolyline
 90
2
 70
0
 10
42.132292
 20
108.364371
 30
0.0
 10
42.132293
 20
113.732302
 30
0.0
  0
LWPOLYLINE
  5
318
100
AcDbEntity
  8
reperes
 62
7
100
AcDbPolyline
 90
2
 70
0
 10
38.520853
 20
107.387500
 30
0.0
 10
35.832294
 20
112.044223
 30
0.0
  0
LWPOLYLINE
  5
319
100
AcDbEntity
  8
reperes
 62
7
100
AcDbPolyline
 90
2
 70
0
 10
35.874876
 20
104.745022
 30
0.0
 10
31.220377
 20
107.432303
 30
0.0
  0
LWPOLYLINE
  5
31a
100
AcDbEntity
  8
reperes
 62
7
100
AcDbPolyline
 90
2
 70
0
 10
34.900617
 20
101.132301
 30
0.0
 10
29.532299
 20
101.132304
 30
0.0
  0
LWPOLYLINE
  5
31b
100
AcDbEntity
  8
reperes
 62
7
100
AcDbPolyline
 90
2
 70
0
 10
35.877200
 20
97.520916
 30
0.0
 10
31.220380
 20
94.832304
 30
0.0
  0
LWPOLYLINE
  5
31c
100
AcDbEntity
  8
reperes
 62
7
100
AcDbPolyline
 90
2
 70
0
 10
38.519511
 20
94.874762
 30
0.0
 10
35.832300
 20
90.220386
 30
0.0
  0
LWPOLYLINE
  5
31d
100
AcDbEntity
  8
reperes
 62
7
100
AcDbPolyline
 90
2
 70
0
 10
27.743853
 20
40.876919
 30
0.0
 10
30.432302
 20
36.220388
 30
0.0
  0
LWPOLYLINE
  5
31e
100
AcDbEntity
  8
reperes
 62
7
100
AcDbPolyline
 90
2
 70
0
 10
30.389912
 20
43.519481
 30
0.0
 10
35.044222
 20
40.832314
 30
0.0
  0
LWPOLYLINE
  5
31f
100
AcDbEntity
  8
reperes
 62
7
100
AcDbPolyline
 90
2
 70
0
 10
31.364361
 20
47.132312
 30
0.0
 10
36.732298
 20
47.132312
 30
0.0
  0
LWPOLYLINE
  5
320
100
AcDbEntity
  8
reperes
 62
7
100
AcDbPolyline
 90
2
 70
0
 10
30.387614
 20
50.743823
 30
0.0
 10
35.044215
 20
53.432313
 30
0.0
  0
LWPOLYLINE
  5
321
100
AcDbEntity
  8
reperes
 62
7
100
AcDbPolyline
 90
2
 70
0
 10
27.745056
 20
53.389802
 30
0.0
 10
30.432293
 20
58.044231
 30
0.0
  0
LWPOLYLINE
  5
322
100
AcDbEntity
  8
reperes
 62
7
100
AcDbPolyline
 90
2
 70
0
 10
24.132291
 20
54.364373
 30
0.0
 10
24.132292
 20
59.732304
 30
0.0
  0
LWPOLYLINE
  5
323
100
AcDbEntity
  8
reperes
 62
7
100
AcDbPolyline
 90
2
 70
0
 10
20.520852
 20
53.387502
 30
0.0
 10
17.832293
 20
58.044225
 30
0.0
  0
LWPOLYLINE
  5
324
100
AcDbEntity
  8
reperes
 62
7
100
AcDbPolyline
 90
2
 70
0
 10
17.874875
 20
50.745025
 30
0.0
 10
13.220376
 20
53.432305
 30
0.0
  0
LWPOLYLINE
  5
325
100
AcDbEntity
  8
reperes
 62
7
100
AcDbPolyline
 90
2
 70
0
 10
16.900616
 20
47.132303
 30
0.0
 10
11.532298
 20
47.132307
 30
0.0
  0
LWPOLYLINE
  5
326
100
AcDbEntity
  8
reperes
 62
7
100
AcDbPolyline
 90
2
 70
0
 10
17.877199
 20
43.520918
 30
0.0
 10
13.220379
 20
40.832306
 30
0.0
  0
LWPOLYLINE
  5
327
100
AcDbEntity
  8
reperes
 62
7
100
AcDbPolyline
 90
2
 70
0
 10
20.519510
 20
40.874764
 30
0.0
 10
17.832299
 20
36.220388
 30
0.0
  0
LWPOLYLINE
  5
328
100
AcDbEntity
  8
reperes
 62
7
100
AcDbPolyline
 90
2
 70
0
 10
63.743842
 20
40.876919
 30
0.0
 10
66.432291
 20
36.220388
 30
0.0
  0
LWPOLYLINE
  5
329
100
AcDbEntity
  8
reperes
 62
7
100
AcDbPolyline
 90
2
 70
0
 10
66.389901
 20
43.519481
 30
0.0
 10
71.044210
 20
40.832314
 30
0.0
  0
LWPOLYLINE
  5
32a
100
AcDbEntity
  8
reperes
 62
7
100
AcDbPolyline
 90
2
 70
0
 10
67.364350
 20
47.132312
 30
0.0
 10
72.732287
 20
47.132312
 30
0.0
  0
LWPOLYLINE
  5
32b
100
AcDbEntity
  8
reperes
 62
7
100
AcDbPolyline
 90
2
 70
0
 10
66.387603
 20
50.743823
 30
0.0
 10
71.044204
 20
53.432313
 30
0.0
  0
LWPOLYLINE
  5
32c
100
AcDbEntity
  8
reperes
 62
7
100
AcDbPolyline
 90
2
 70
0
 10
63.745045
 20
53.389802
 30
0.0
 10
66.432282
 20
58.044231
 30
0.0
  0
LWPOLYLINE
  5
32d
100
AcDbEntity
  8
reperes
 62
7
100
AcDbPolyline
 90
2
 70
0
 10
60.132280
 20
54.364373
 30
0.0
 10
60.132281
 20
59.732304
 30
0.0
  0
LWPOLYLINE
  5
32e
100
AcDbEntity
  8
reperes
 62
7
100
AcDbPolyline
 90
2
 70
0
 10
56.520841
 20
53.387502
 30
0.0
 10
53.832282
 20
58.044225
 30
0.0
  0
LWPOLYLINE
  5
32f
100
AcDbEntity
  8
reperes
 62
7
100
AcDbPolyline
 90
2
 70
0
 10
53.874864
 20
50.745025
 30
0.0
 10
49.220364
 20
53.432305
 30
0.0
  0
LWPOLYLINE
  5
330
100
AcDbEntity
  8
reperes
 62
7
100
AcDbPolyline
 90
2
 70
0
 10
52.900605
 20
47.132303
 30
0.0
 10
47.532287
 20
47.132307
 30
0.0
  0
LWPOLYLINE
  5
331
100
AcDbEntity
  8
reperes
 62
7
100
AcDbPolyline
 90
2
 70
0
 10
53.877187
 20
43.520918
 30
0.0
 10
49.220368
 20
40.832306
 30
0.0
  0
LWPOLYLINE
  5
332
100
AcDbEntity
  8
reperes
 62
7
100
AcDbPolyline
 90
2
 70
0
 10
56.519499
 20
40.874764
 30
0.0
 10
53.832288
 20
36.220388
 30
0.0
  0
LWPOLYLINE
  5
333
100
AcDbEntity
  8
reperes
 62
7
100
AcDbPolyline
 90
2
 70
0
 10
215.743845
 20
94.876920
 30
0.0
 10
218.432294
 20
90.220389
 30
0.0
  0
LWPOLYLINE
  5
334
100
AcDbEntity
  8
reperes
 62
7
100
AcDbPolyline
 90
2
 70
0
 10
218.389904
 20
97.519481
 30
0.0
 10
223.044213
 20
94.832314
 30
0.0
  0
LWPOLYLINE
  5
335
100
AcDbEntity
  8
reperes
 62
7
100
AcDbPolyline
 90
2
 70
0
 10
219.364353
 20
101.132313
 30
0.0
 10
224.732290
 20
101.132313
 30
0.0
  0
LWPOLYLINE
  5
336
100
AcDbEntity
  8
reperes
 62
7
100
AcDbPolyline
 90
2
 70
0
 10
218.387606
 20
104.743823
 30
0.0
 10
223.044207
 20
107.432314
 30
0.0
  0
LWPOLYLINE
  5
337
100
AcDbEntity
  8
reperes
 62
7
100
AcDbPolyline
 90
2
 70
0
 10
215.745047
 20
107.389803
 30
0.0
 10
218.432285
 20
112.044231
 30
0.0
  0
LWPOLYLINE
  5
338
100
AcDbEntity
  8
reperes
 62
7
100
AcDbPolyline
 90
2
 70
0
 10
212.132283
 20
108.364373
 30
0.0
 10
212.132284
 20
113.732305
 30
0.0
  0
LWPOLYLINE
  5
339
100
AcDbEntity
  8
reperes
 62
7
100
AcDbPolyline
 90
2
 70
0
 10
208.520844
 20
107.387502
 30
0.0
 10
205.832285
 20
112.044225
 30
0.0
  0
LWPOLYLINE
  5
33a
100
AcDbEntity
  8
reperes
 62
7
100
AcDbPolyline
 90
2
 70
0
 10
205.874866
 20
104.745025
 30
0.0
 10
201.220367
 20
107.432306
 30
0.0
  0
LWPOLYLINE
  5
33b
100
AcDbEntity
  8
reperes
 62
7
100
AcDbPolyline
 90
2
 70
0
 10
204.900607
 20
101.132303
 30
0.0
 10
199.532290
 20
101.132307
 30
0.0
  0
LWPOLYLINE
  5
33c
100
AcDbEntity
  8
reperes
 62
7
100
AcDbPolyline
 90
2
 70
0
 10
205.877190
 20
97.520919
 30
0.0
 10
201.220371
 20
94.832306
 30
0.0
  0
LWPOLYLINE
  5
33d
100
AcDbEntity
  8
reperes
 62
7
100
AcDbPolyline
 90
2
 70
0
 10
208.519502
 20
94.874765
 30
0.0
 10
205.832291
 20
90.220389
 30
0.0
  0
LWPOLYLINE
  5
33e
100
AcDbEntity
  8
reperes
 62
7
100
AcDbPolyline
 90
2
 70
0
 10
215.743858
 20
58.876920
 30
0.0
 10
218.432307
 20
54.220389
 30
0.0
  0
LWPOLYLINE
  5
33f
100
AcDbEntity
  8
reperes
 62
7
100
AcDbPolyline
 90
2
 70
0
 10
218.389917
 20
61.519482
 30
0.0
 10
223.044227
 20
58.832315
 30
0.0
  0
LWPOLYLINE
  5
340
100
AcDbEntity
  8
reperes
 62
7
100
AcDbPolyline
 90
2
 70
0
 10
219.364366
 20
65.132314
 30
0.0
 10
224.732303
 20
65.132314
 30
0.0
  0
LWPOLYLINE
  5
341
100
AcDbEntity
  8
reperes
 62
7
100
AcDbPolyline
 90
2
 70
0
 10
218.387619
 20
68.743824
 30
0.0
 10
223.044220
 20
71.432314
 30
0.0
  0
LWPOLYLINE
  5
342
100
AcDbEntity
  8
reperes
 62
7
100
AcDbPolyline
 90
2
 70
0
 10
215.745061
 20
71.389803
 30
0.0
 10
218.432298
 20
76.044232
 30
0.0
  0
LWPOLYLINE
  5
343
100
AcDbEntity
  8
reperes
 62
7
100
AcDbPolyline
 90
2
 70
0
 10
212.132296
 20
72.364374
 30
0.0
 10
212.132297
 20
77.732305
 30
0.0
  0
LWPOLYLINE
  5
344
100
AcDbEntity
  8
reperes
 62
7
100
AcDbPolyline
 90
2
 70
0
 10
208.520857
 20
71.387503
 30
0.0
 10
205.832298
 20
76.044226
 30
0.0
  0
LWPOLYLINE
  5
345
100
AcDbEntity
  8
reperes
 62
7
100
AcDbPolyline
 90
2
 70
0
 10
205.874880
 20
68.745026
 30
0.0
 10
201.220381
 20
71.432307
 30
0.0
  0
LWPOLYLINE
  5
346
100
AcDbEntity
  8
reperes
 62
7
100
AcDbPolyline
 90
2
 70
0
 10
204.900621
 20
65.132304
 30
0.0
 10
199.532303
 20
65.132308
 30
0.0
  0
LWPOLYLINE
  5
347
100
AcDbEntity
  8
reperes
 62
7
100
AcDbPolyline
 90
2
 70
0
 10
205.877204
 20
61.520919
 30
0.0
 10
201.220384
 20
58.832307
 30
0.0
  0
LWPOLYLINE
  5
348
100
AcDbEntity
  8
reperes
 62
7
100
AcDbPolyline
 90
2
 70
0
 10
208.519515
 20
58.874765
 30
0.0
 10
205.832304
 20
54.220389
 30
0.0
  0
LWPOLYLINE
  5
349
100
AcDbEntity
  8
reperes
 62
7
100
AcDbPolyline
 90
2
 70
0
 10
215.743858
 20
22.876921
 30
0.0
 10
218.432307
 20
18.220390
 30
0.0
  0
LWPOLYLINE
  5
34a
100
AcDbEntity
  8
reperes
 62
7
100
AcDbPolyline
 90
2
 70
0
 10
218.389917
 20
25.519482
 30
0.0
 10
223.044227
 20
22.832315
 30
0.0
  0
LWPOLYLINE
  5
34b
100
AcDbEntity
  8
reperes
 62
7
100
AcDbPolyline
 90
2
 70
0
 10
219.364366
 20
29.132314
 30
0.0
 10
224.732303
 20
29.132314
 30
0.0
  0
LWPOLYLINE
  5
34c
100
AcDbEntity
  8
reperes
 62
7
100
AcDbPolyline
 90
2
 70
0
 10
218.387619
 20
32.743824
 30
0.0
 10
223.044220
 20
35.432315
 30
0.0
  0
LWPOLYLINE
  5
34d
100
AcDbEntity
  8
reperes
 62
7
100
AcDbPolyline
 90
2
 70
0
 10
215.745061
 20
35.389804
 30
0.0
 10
218.432298
 20
40.044232
 30
0.0
  0
LWPOLYLINE
  5
34e
100
AcDbEntity
  8
reperes
 62
7
100
AcDbPolyline
 90
2
 70
0
 10
212.132296
 20
36.364375
 30
0.0
 10
212.132297
 20
41.732306
 30
0.0
  0
LWPOLYLINE
  5
34f
100
AcDbEntity
  8
reperes
 62
7
100
AcDbPolyline
 90
2
 70
0
 10
208.520857
 20
35.387503
 30
0.0
 10
205.832298
 20
40.044226
 30
0.0
  0
LWPOLYLINE
  5
350
100
AcDbEntity
  8
reperes
 62
7
100
AcDbPolyline
 90
2
 70
0
 10
205.874880
 20
32.745026
 30
0.0
 10
201.220381
 20
35.432307
 30
0.0
  0
LWPOLYLINE
  5
351
100
AcDbEntity
  8
reperes
 62
7
100
AcDbPolyline
 90
2
 70
0
 10
204.900621
 20
29.132304
 30
0.0
 10
199.532303
 20
29.132308
 30
0.0
  0
LWPOLYLINE
  5
352
100
AcDbEntity
  8
reperes
 62
7
100
AcDbPolyline
 90
2
 70
0
 10
205.877204
 20
25.520920
 30
0.0
 10
201.220384
 20
22.832307
 30
0.0
  0
LWPOLYLINE
  5
353
100
AcDbEntity
  8
reperes
 62
7
100
AcDbPolyline
 90
2
 70
0
 10
208.519515
 20
22.874766
 30
0.0
 10
205.832304
 20
18.220390
 30
0.0
  0
LWPOLYLINE
  5
354
100
AcDbEntity
  8
reperes
 62
7
100
AcDbPolyline
 90
2
 70
0
 10
271.743855
 20
76.876919
 30
0.0
 10
274.432303
 20
72.220388
 30
0.0
  0
LWPOLYLINE
  5
355
100
AcDbEntity
  8
reperes
 62
7
100
AcDbPolyline
 90
2
 70
0
 10
274.389913
 20
79.519480
 30
0.0
 10
279.044223
 20
76.832313
 30
0.0
  0
LWPOLYLINE
  5
356
100
AcDbEntity
  8
reperes
 62
7
100
AcDbPolyline
 90
2
 70
0
 10
275.364362
 20
83.132312
 30
0.0
 10
280.732300
 20
83.132312
 30
0.0
  0
LWPOLYLINE
  5
357
100
AcDbEntity
  8
reperes
 62
7
100
AcDbPolyline
 90
2
 70
0
 10
274.387616
 20
86.743822
 30
0.0
 10
279.044217
 20
89.432313
 30
0.0
  0
LWPOLYLINE
  5
358
100
AcDbEntity
  8
reperes
 62
7
100
AcDbPolyline
 90
2
 70
0
 10
271.745057
 20
89.389802
 30
0.0
 10
274.432295
 20
94.044230
 30
0.0
  0
LWPOLYLINE
  5
359
100
AcDbEntity
  8
reperes
 62
7
100
AcDbPolyline
 90
2
 70
0
 10
268.132292
 20
90.364372
 30
0.0
 10
268.132293
 20
95.732304
 30
0.0
  0
LWPOLYLINE
  5
35a
100
AcDbEntity
  8
reperes
 62
7
100
AcDbPolyline
 90
2
 70
0
 10
264.520853
 20
89.387501
 30
0.0
 10
261.832294
 20
94.044224
 30
0.0
  0
LWPOLYLINE
  5
35b
100
AcDbEntity
  8
reperes
 62
7
100
AcDbPolyline
 90
2
 70
0
 10
261.874876
 20
86.745024
 30
0.0
 10
257.220377
 20
89.432305
 30
0.0
  0
LWPOLYLINE
  5
35c
100
AcDbEntity
  8
reperes
 62
7
100
AcDbPolyline
 90
2
 70
0
 10
260.900617
 20
83.132302
 30
0.0
 10
255.532299
 20
83.132306
 30
0.0
  0
LWPOLYLINE
  5
35d
100
AcDbEntity
  8
reperes
 62
7
100
AcDbPolyline
 90
2
 70
0
 10
261.877200
 20
79.520918
 30
0.0
 10
257.220381
 20
76.832305
 30
0.0
  0
LWPOLYLINE
  5
35e
100
AcDbEntity
  8
reperes
 62
7
100
AcDbPolyline
 90
2
 70
0
 10
264.519511
 20
76.874763
 30
0.0
 10
261.832300
 20
72.220388
 30
0.0
  0
LWPOLYLINE
  5
35f
100
AcDbEntity
  8
reperes
 62
7
100
AcDbPolyline
 90
2
 70
0
 10
271.743855
 20
40.876922
 30
0.0
 10
274.432303
 20
36.220391
 30
0.0
  0
LWPOLYLINE
  5
360
100
AcDbEntity
  8
reperes
 62
7
100
AcDbPolyline
 90
2
 70
0
 10
274.389913
 20
43.519483
 30
0.0
 10
279.044223
 20
40.832316
 30
0.0
  0
LWPOLYLINE
  5
361
100
AcDbEntity
  8
reperes
 62
7
100
AcDbPolyline
 90
2
 70
0
 10
275.364362
 20
47.132315
 30
0.0
 10
280.732300
 20
47.132315
 30
0.0
  0
LWPOLYLINE
  5
362
100
AcDbEntity
  8
reperes
 62
7
100
AcDbPolyline
 90
2
 70
0
 10
274.387616
 20
50.743825
 30
0.0
 10
279.044217
 20
53.432316
 30
0.0
  0
LWPOLYLINE
  5
363
100
AcDbEntity
  8
reperes
 62
7
100
AcDbPolyline
 90
2
 70
0
 10
271.745057
 20
53.389805
 30
0.0
 10
274.432295
 20
58.044233
 30
0.0
  0
LWPOLYLINE
  5
364
100
AcDbEntity
  8
reperes
 62
7
100
AcDbPolyline
 90
2
 70
0
 10
268.132292
 20
54.364376
 30
0.0
 10
268.132293
 20
59.732307
 30
0.0
  0
LWPOLYLINE
  5
365
100
AcDbEntity
  8
reperes
 62
7
100
AcDbPolyline
 90
2
 70
0
 10
264.520853
 20
53.387504
 30
0.0
 10
261.832294
 20
58.044227
 30
0.0
  0
LWPOLYLINE
  5
366
100
AcDbEntity
  8
reperes
 62
7
100
AcDbPolyline
 90
2
 70
0
 10
261.874876
 20
50.745027
 30
0.0
 10
257.220377
 20
53.432308
 30
0.0
  0
LWPOLYLINE
  5
367
100
AcDbEntity
  8
reperes
 62
7
100
AcDbPolyline
 90
2
 70
0
 10
260.900617
 20
47.132305
 30
0.0
 10
255.532299
 20
47.132309
 30
0.0
  0
LWPOLYLINE
  5
368
100
AcDbEntity
  8
reperes
 62
7
100
AcDbPolyline
 90
2
 70
0
 10
261.877200
 20
43.520921
 30
0.0
 10
257.220381
 20
40.832308
 30
0.0
  0
LWPOLYLINE
  5
369
100
AcDbEntity
  8
reperes
 62
7
100
AcDbPolyline
 90
2
 70
0
 10
264.519511
 20
40.874767
 30
0.0
 10
261.832300
 20
36.220391
 30
0.0
  0
LWPOLYLINE
  5
36a
100
AcDbEntity
  8
reperes
 62
7
100
AcDbPolyline
 90
2
 70
0
 10
311.743828
 20
94.876920
 30
0.0
 10
314.432276
 20
90.220389
 30
0.0
  0
LWPOLYLINE
  5
36b
100
AcDbEntity
  8
reperes
 62
7
100
AcDbPolyline
 90
2
 70
0
 10
314.389886
 20
97.519481
 30
0.0
 10
319.044196
 20
94.832314
 30
0.0
  0
LWPOLYLINE
  5
36c
100
AcDbEntity
  8
reperes
 62
7
100
AcDbPolyline
 90
2
 70
0
 10
315.364335
 20
101.132313
 30
0.0
 10
320.732273
 20
101.132313
 30
0.0
  0
LWPOLYLINE
  5
36d
100
AcDbEntity
  8
reperes
 62
7
100
AcDbPolyline
 90
2
 70
0
 10
314.387588
 20
104.743823
 30
0.0
 10
319.044190
 20
107.432314
 30
0.0
  0
LWPOLYLINE
  5
36e
100
AcDbEntity
  8
reperes
 62
7
100
AcDbPolyline
 90
2
 70
0
 10
311.745030
 20
107.389803
 30
0.0
 10
314.432268
 20
112.044231
 30
0.0
  0
LWPOLYLINE
  5
36f
100
AcDbEntity
  8
reperes
 62
7
100
AcDbPolyline
 90
2
 70
0
 10
308.132265
 20
108.364373
 30
0.0
 10
308.132266
 20
113.732305
 30
0.0
  0
LWPOLYLINE
  5
370
100
AcDbEntity
  8
reperes
 62
7
100
AcDbPolyline
 90
2
 70
0
 10
304.520826
 20
107.387502
 30
0.0
 10
301.832267
 20
112.044225
 30
0.0
  0
LWPOLYLINE
  5
371
100
AcDbEntity
  8
reperes
 62
7
100
AcDbPolyline
 90
2
 70
0
 10
301.874849
 20
104.745025
 30
0.0
 10
297.220350
 20
107.432306
 30
0.0
  0
LWPOLYLINE
  5
372
100
AcDbEntity
  8
reperes
 62
7
100
AcDbPolyline
 90
2
 70
0
 10
300.900590
 20
101.132303
 30
0.0
 10
295.532272
 20
101.132307
 30
0.0
  0
LWPOLYLINE
  5
373
100
AcDbEntity
  8
reperes
 62
7
100
AcDbPolyline
 90
2
 70
0
 10
301.877173
 20
97.520919
 30
0.0
 10
297.220354
 20
94.832306
 30
0.0
  0
LWPOLYLINE
  5
374
100
AcDbEntity
  8
reperes
 62
7
100
AcDbPolyline
 90
2
 70
0
 10
304.519484
 20
94.874765
 30
0.0
 10
301.832273
 20
90.220389
 30
0.0
  0
LWPOLYLINE
  5
375
100
AcDbEntity
  8
reperes
 62
7
100
AcDbPolyline
 90
2
 70
0
 10
347.743856
 20
94.876920
 30
0.0
 10
350.432305
 20
90.220389
 30
0.0
  0
LWPOLYLINE
  5
376
100
AcDbEntity
  8
reperes
 62
7
100
AcDbPolyline
 90
2
 70
0
 10
350.389915
 20
97.519481
 30
0.0
 10
355.044224
 20
94.832314
 30
0.0
  0
LWPOLYLINE
  5
377
100
AcDbEntity
  8
reperes
 62
7
100
AcDbPolyline
 90
2
 70
0
 10
351.364364
 20
101.132313
 30
0.0
 10
356.732301
 20
101.132313
 30
0.0
  0
LWPOLYLINE
  5
378
100
AcDbEntity
  8
reperes
 62
7
100
AcDbPolyline
 90
2
 70
0
 10
350.387617
 20
104.743823
 30
0.0
 10
355.044218
 20
107.432314
 30
0.0
  0
LWPOLYLINE
  5
379
100
AcDbEntity
  8
reperes
 62
7
100
AcDbPolyline
 90
2
 70
0
 10
347.745059
 20
107.389803
 30
0.0
 10
350.432296
 20
112.044231
 30
0.0
  0
LWPOLYLINE
  5
37a
100
AcDbEntity
  8
reperes
 62
7
100
AcDbPolyline
 90
2
 70
0
 10
344.132294
 20
108.364373
 30
0.0
 10
344.132295
 20
113.732305
 30
0.0
  0
LWPOLYLINE
  5
37b
100
AcDbEntity
  8
reperes
 62
7
100
AcDbPolyline
 90
2
 70
0
 10
340.520855
 20
107.387502
 30
0.0
 10
337.832296
 20
112.044225
 30
0.0
  0
LWPOLYLINE
  5
37c
100
AcDbEntity
  8
reperes
 62
7
100
AcDbPolyline
 90
2
 70
0
 10
337.874878
 20
104.745025
 30
0.0
 10
333.220378
 20
107.432306
 30
0.0
  0
LWPOLYLINE
  5
37d
100
AcDbEntity
  8
reperes
 62
7
100
AcDbPolyline
 90
2
 70
0
 10
336.900619
 20
101.132303
 30
0.0
 10
331.532301
 20
101.132307
 30
0.0
  0
LWPOLYLINE
  5
37e
100
AcDbEntity
  8
reperes
 62
7
100
AcDbPolyline
 90
2
 70
0
 10
337.877201
 20
97.520919
 30
0.0
 10
333.220382
 20
94.832306
 30
0.0
  0
LWPOLYLINE
  5
37f
100
AcDbEntity
  8
reperes
 62
7
100
AcDbPolyline
 90
2
 70
0
 10
340.519513
 20
94.874765
 30
0.0
 10
337.832302
 20
90.220389
 30
0.0
  0
LWPOLYLINE
  5
380
100
AcDbEntity
  8
reperes
 62
7
100
AcDbPolyline
 90
2
 70
0
 10
383.743832
 20
94.876920
 30
0.0
 10
386.432281
 20
90.220389
 30
0.0
  0
LWPOLYLINE
  5
381
100
AcDbEntity
  8
reperes
 62
7
100
AcDbPolyline
 90
2
 70
0
 10
386.389890
 20
97.519481
 30
0.0
 10
391.044200
 20
94.832314
 30
0.0
  0
LWPOLYLINE
  5
382
100
AcDbEntity
  8
reperes
 62
7
100
AcDbPolyline
 90
2
 70
0
 10
387.364340
 20
101.132313
 30
0.0
 10
392.732277
 20
101.132313
 30
0.0
  0
LWPOLYLINE
  5
383
100
AcDbEntity
  8
reperes
 62
7
100
AcDbPolyline
 90
2
 70
0
 10
386.387593
 20
104.743823
 30
0.0
 10
391.044194
 20
107.432314
 30
0.0
  0
LWPOLYLINE
  5
384
100
AcDbEntity
  8
reperes
 62
7
100
AcDbPolyline
 90
2
 70
0
 10
383.745034
 20
107.389803
 30
0.0
 10
386.432272
 20
112.044231
 30
0.0
  0
LWPOLYLINE
  5
385
100
AcDbEntity
  8
reperes
 62
7
100
AcDbPolyline
 90
2
 70
0
 10
380.132270
 20
108.364373
 30
0.0
 10
380.132271
 20
113.732305
 30
0.0
  0
LWPOLYLINE
  5
386
100
AcDbEntity
  8
reperes
 62
7
100
AcDbPolyline
 90
2
 70
0
 10
376.520830
 20
107.387502
 30
0.0
 10
373.832271
 20
112.044225
 30
0.0
  0
LWPOLYLINE
  5
387
100
AcDbEntity
  8
reperes
 62
7
100
AcDbPolyline
 90
2
 70
0
 10
373.874853
 20
104.745025
 30
0.0
 10
369.220354
 20
107.432306
 30
0.0
  0
LWPOLYLINE
  5
388
100
AcDbEntity
  8
reperes
 62
7
100
AcDbPolyline
 90
2
 70
0
 10
372.900594
 20
101.132303
 30
0.0
 10
367.532277
 20
101.132307
 30
0.0
  0
LWPOLYLINE
  5
389
100
AcDbEntity
  8
reperes
 62
7
100
AcDbPolyline
 90
2
 70
0
 10
373.877177
 20
97.520919
 30
0.0
 10
369.220358
 20
94.832306
 30
0.0
  0
LWPOLYLINE
  5
38a
100
AcDbEntity
  8
reperes
 62
7
100
AcDbPolyline
 90
2
 70
0
 10
376.519488
 20
94.874765
 30
0.0
 10
373.832277
 20
90.220389
 30
0.0
  0
LWPOLYLINE
  5
38b
100
AcDbEntity
  8
reperes
 62
7
100
AcDbPolyline
 90
2
 70
0
 10
419.743834
 20
94.876920
 30
0.0
 10
422.432283
 20
90.220389
 30
0.0
  0
LWPOLYLINE
  5
38c
100
AcDbEntity
  8
reperes
 62
7
100
AcDbPolyline
 90
2
 70
0
 10
422.389892
 20
97.519481
 30
0.0
 10
427.044202
 20
94.832314
 30
0.0
  0
LWPOLYLINE
  5
38d
100
AcDbEntity
  8
reperes
 62
7
100
AcDbPolyline
 90
2
 70
0
 10
423.364342
 20
101.132313
 30
0.0
 10
428.732279
 20
101.132313
 30
0.0
  0
LWPOLYLINE
  5
38e
100
AcDbEntity
  8
reperes
 62
7
100
AcDbPolyline
 90
2
 70
0
 10
422.387595
 20
104.743823
 30
0.0
 10
427.044196
 20
107.432314
 30
0.0
  0
LWPOLYLINE
  5
38f
100
AcDbEntity
  8
reperes
 62
7
100
AcDbPolyline
 90
2
 70
0
 10
419.745036
 20
107.389803
 30
0.0
 10
422.432274
 20
112.044231
 30
0.0
  0
LWPOLYLINE
  5
390
100
AcDbEntity
  8
reperes
 62
7
100
AcDbPolyline
 90
2
 70
0
 10
416.132272
 20
108.364373
 30
0.0
 10
416.132273
 20
113.732305
 30
0.0
  0
LWPOLYLINE
  5
391
100
AcDbEntity
  8
reperes
 62
7
100
AcDbPolyline
 90
2
 70
0
 10
412.520832
 20
107.387502
 30
0.0
 10
409.832274
 20
112.044225
 30
0.0
  0
LWPOLYLINE
  5
392
100
AcDbEntity
  8
reperes
 62
7
100
AcDbPolyline
 90
2
 70
0
 10
409.874855
 20
104.745025
 30
0.0
 10
405.220356
 20
107.432306
 30
0.0
  0
LWPOLYLINE
  5
393
100
AcDbEntity
  8
reperes
 62
7
100
AcDbPolyline
 90
2
 70
0
 10
408.900596
 20
101.132303
 30
0.0
 10
403.532279
 20
101.132307
 30
0.0
  0
LWPOLYLINE
  5
394
100
AcDbEntity
  8
reperes
 62
7
100
AcDbPolyline
 90
2
 70
0
 10
409.877179
 20
97.520919
 30
0.0
 10
405.220360
 20
94.832306
 30
0.0
  0
LWPOLYLINE
  5
395
100
AcDbEntity
  8
reperes
 62
7
100
AcDbPolyline
 90
2
 70
0
 10
412.519490
 20
94.874765
 30
0.0
 10
409.832279
 20
90.220389
 30
0.0
  0
LWPOLYLINE
  5
396
100
AcDbEntity
  8
reperes
 62
7
100
AcDbPolyline
 90
2
 70
0
 10
311.743854
 20
58.876920
 30
0.0
 10
314.432303
 20
54.220389
 30
0.0
  0
LWPOLYLINE
  5
397
100
AcDbEntity
  8
reperes
 62
7
100
AcDbPolyline
 90
2
 70
0
 10
314.389913
 20
61.519482
 30
0.0
 10
319.044222
 20
58.832315
 30
0.0
  0
LWPOLYLINE
  5
398
100
AcDbEntity
  8
reperes
 62
7
100
AcDbPolyline
 90
2
 70
0
 10
315.364362
 20
65.132314
 30
0.0
 10
320.732299
 20
65.132314
 30
0.0
  0
LWPOLYLINE
  5
399
100
AcDbEntity
  8
reperes
 62
7
100
AcDbPolyline
 90
2
 70
0
 10
314.387615
 20
68.743824
 30
0.0
 10
319.044216
 20
71.432314
 30
0.0
  0
LWPOLYLINE
  5
39a
100
AcDbEntity
  8
reperes
 62
7
100
AcDbPolyline
 90
2
 70
0
 10
311.745057
 20
71.389803
 30
0.0
 10
314.432294
 20
76.044232
 30
0.0
  0
LWPOLYLINE
  5
39b
100
AcDbEntity
  8
reperes
 62
7
100
AcDbPolyline
 90
2
 70
0
 10
308.132292
 20
72.364374
 30
0.0
 10
308.132293
 20
77.732305
 30
0.0
  0
LWPOLYLINE
  5
39c
100
AcDbEntity
  8
reperes
 62
7
100
AcDbPolyline
 90
2
 70
0
 10
304.520853
 20
71.387503
 30
0.0
 10
301.832294
 20
76.044226
 30
0.0
  0
LWPOLYLINE
  5
39d
100
AcDbEntity
  8
reperes
 62
7
100
AcDbPolyline
 90
2
 70
0
 10
301.874876
 20
68.745026
 30
0.0
 10
297.220376
 20
71.432307
 30
0.0
  0
LWPOLYLINE
  5
39e
100
AcDbEntity
  8
reperes
 62
7
100
AcDbPolyline
 90
2
 70
0
 10
300.900617
 20
65.132304
 30
0.0
 10
295.532299
 20
65.132308
 30
0.0
  0
LWPOLYLINE
  5
39f
100
AcDbEntity
  8
reperes
 62
7
100
AcDbPolyline
 90
2
 70
0
 10
301.877199
 20
61.520919
 30
0.0
 10
297.220380
 20
58.832307
 30
0.0
  0
LWPOLYLINE
  5
3a0
100
AcDbEntity
  8
reperes
 62
7
100
AcDbPolyline
 90
2
 70
0
 10
304.519511
 20
58.874765
 30
0.0
 10
301.832300
 20
54.220389
 30
0.0
  0
LWPOLYLINE
  5
3a1
100
AcDbEntity
  8
reperes
 62
7
100
AcDbPolyline
 90
2
 70
0
 10
347.743830
 20
58.876920
 30
0.0
 10
350.432278
 20
54.220389
 30
0.0
  0
LWPOLYLINE
  5
3a2
100
AcDbEntity
  8
reperes
 62
7
100
AcDbPolyline
 90
2
 70
0
 10
350.389888
 20
61.519482
 30
0.0
 10
355.044198
 20
58.832315
 30
0.0
  0
LWPOLYLINE
  5
3a3
100
AcDbEntity
  8
reperes
 62
7
100
AcDbPolyline
 90
2
 70
0
 10
351.364337
 20
65.132314
 30
0.0
 10
356.732275
 20
65.132314
 30
0.0
  0
LWPOLYLINE
  5
3a4
100
AcDbEntity
  8
reperes
 62
7
100
AcDbPolyline
 90
2
 70
0
 10
350.387591
 20
68.743824
 30
0.0
 10
355.044192
 20
71.432314
 30
0.0
  0
LWPOLYLINE
  5
3a5
100
AcDbEntity
  8
reperes
 62
7
100
AcDbPolyline
 90
2
 70
0
 10
347.745032
 20
71.389803
 30
0.0
 10
350.432270
 20
76.044232
 30
0.0
  0
LWPOLYLINE
  5
3a6
100
AcDbEntity
  8
reperes
 62
7
100
AcDbPolyline
 90
2
 70
0
 10
344.132267
 20
72.364374
 30
0.0
 10
344.132268
 20
77.732305
 30
0.0
  0
LWPOLYLINE
  5
3a7
100
AcDbEntity
  8
reperes
 62
7
100
AcDbPolyline
 90
2
 70
0
 10
340.520828
 20
71.387503
 30
0.0
 10
337.832269
 20
76.044226
 30
0.0
  0
LWPOLYLINE
  5
3a8
100
AcDbEntity
  8
reperes
 62
7
100
AcDbPolyline
 90
2
 70
0
 10
337.874851
 20
68.745026
 30
0.0
 10
333.220352
 20
71.432307
 30
0.0
  0
LWPOLYLINE
  5
3a9
100
AcDbEntity
  8
reperes
 62
7
100
AcDbPolyline
 90
2
 70
0
 10
336.900592
 20
65.132304
 30
0.0
 10
331.532274
 20
65.132308
 30
0.0
  0
LWPOLYLINE
  5
3aa
100
AcDbEntity
  8
reperes
 62
7
100
AcDbPolyline
 90
2
 70
0
 10
337.877175
 20
61.520919
 30
0.0
 10
333.220356
 20
58.832307
 30
0.0
  0
LWPOLYLINE
  5
3ab
100
AcDbEntity
  8
reperes
 62
7
100
AcDbPolyline
 90
2
 70
0
 10
340.519486
 20
58.874765
 30
0.0
 10
337.832275
 20
54.220389
 30
0.0
  0
LWPOLYLINE
  5
3ac
100
AcDbEntity
  8
reperes
 62
7
100
AcDbPolyline
 90
2
 70
0
 10
383.743832
 20
58.876920
 30
0.0
 10
386.432281
 20
54.220389
 30
0.0
  0
LWPOLYLINE
  5
3ad
100
AcDbEntity
  8
reperes
 62
7
100
AcDbPolyline
 90
2
 70
0
 10
386.389890
 20
61.519482
 30
0.0
 10
391.044200
 20
58.832315
 30
0.0
  0
LWPOLYLINE
  5
3ae
100
AcDbEntity
  8
reperes
 62
7
100
AcDbPolyline
 90
2
 70
0
 10
387.364340
 20
65.132314
 30
0.0
 10
392.732277
 20
65.132314
 30
0.0
  0
LWPOLYLINE
  5
3af
100
AcDbEntity
  8
reperes
 62
7
100
AcDbPolyline
 90
2
 70
0
 10
386.387593
 20
68.743824
 30
0.0
 10
391.044194
 20
71.432314
 30
0.0
  0
LWPOLYLINE
  5
3b0
100
AcDbEntity
  8
reperes
 62
7
100
AcDbPolyline
 90
2
 70
0
 10
383.745034
 20
71.389803
 30
0.0
 10
386.432272
 20
76.044232
 30
0.0
  0
LWPOLYLINE
  5
3b1
100
AcDbEntity
  8
reperes
 62
7
100
AcDbPolyline
 90
2
 70
0
 10
380.132270
 20
72.364374
 30
0.0
 10
380.132271
 20
77.732305
 30
0.0
  0
LWPOLYLINE
  5
3b2
100
AcDbEntity
  8
reperes
 62
7
100
AcDbPolyline
 90
2
 70
0
 10
376.520830
 20
71.387503
 30
0.0
 10
373.832271
 20
76.044226
 30
0.0
  0
LWPOLYLINE
  5
3b3
100
AcDbEntity
  8
reperes
 62
7
100
AcDbPolyline
 90
2
 70
0
 10
373.874853
 20
68.745026
 30
0.0
 10
369.220354
 20
71.432307
 30
0.0
  0
LWPOLYLINE
  5
3b4
100
AcDbEntity
  8
reperes
 62
7
100
AcDbPolyline
 90
2
 70
0
 10
372.900594
 20
65.132304
 30
0.0
 10
367.532277
 20
65.132308
 30
0.0
  0
LWPOLYLINE
  5
3b5
100
AcDbEntity
  8
reperes
 62
7
100
AcDbPolyline
 90
2
 70
0
 10
373.877177
 20
61.520919
 30
0.0
 10
369.220358
 20
58.832307
 30
0.0
  0
LWPOLYLINE
  5
3b6
100
AcDbEntity
  8
reperes
 62
7
100
AcDbPolyline
 90
2
 70
0
 10
376.519488
 20
58.874765
 30
0.0
 10
373.832277
 20
54.220389
 30
0.0
  0
LWPOLYLINE
  5
3b7
100
AcDbEntity
  8
reperes
 62
7
100
AcDbPolyline
 90
2
 70
0
 10
419.743834
 20
58.876920
 30
0.0
 10
422.432283
 20
54.220389
 30
0.0
  0
LWPOLYLINE
  5
3b8
100
AcDbEntity
  8
reperes
 62
7
100
AcDbPolyline
 90
2
 70
0
 10
422.389892
 20
61.519482
 30
0.0
 10
427.044202
 20
58.832315
 30
0.0
  0
LWPOLYLINE
  5
3b9
100
AcDbEntity
  8
reperes
 62
7
100
AcDbPolyline
 90
2
 70
0
 10
423.364342
 20
65.132314
 30
0.0
 10
428.732279
 20
65.132314
 30
0.0
  0
LWPOLYLINE
  5
3ba
100
AcDbEntity
  8
reperes
 62
7
100
AcDbPolyline
 90
2
 70
0
 10
422.387595
 20
68.743824
 30
0.0
 10
427.044196
 20
71.432314
 30
0.0
  0
LWPOLYLINE
  5
3bb
100
AcDbEntity
  8
reperes
 62
7
100
AcDbPolyline
 90
2
 70
0
 10
419.745036
 20
71.389803
 30
0.0
 10
422.432274
 20
76.044232
 30
0.0
  0
LWPOLYLINE
  5
3bc
100
AcDbEntity
  8
reperes
 62
7
100
AcDbPolyline
 90
2
 70
0
 10
416.132272
 20
72.364374
 30
0.0
 10
416.132273
 20
77.732305
 30
0.0
  0
LWPOLYLINE
  5
3bd
100
AcDbEntity
  8
reperes
 62
7
100
AcDbPolyline
 90
2
 70
0
 10
412.520832
 20
71.387503
 30
0.0
 10
409.832274
 20
76.044226
 30
0.0
  0
LWPOLYLINE
  5
3be
100
AcDbEntity
  8
reperes
 62
7
100
AcDbPolyline
 90
2
 70
0
 10
409.874855
 20
68.745026
 30
0.0
 10
405.220356
 20
71.432307
 30
0.0
  0
LWPOLYLINE
  5
3bf
100
AcDbEntity
  8
reperes
 62
7
100
AcDbPolyline
 90
2
 70
0
 10
408.900596
 20
65.132304
 30
0.0
 10
403.532279
 20
65.132308
 30
0.0
  0
LWPOLYLINE
  5
3c0
100
AcDbEntity
  8
reperes
 62
7
100
AcDbPolyline
 90
2
 70
0
 10
409.877179
 20
61.520919
 30
0.0
 10
405.220360
 20
58.832307
 30
0.0
  0
LWPOLYLINE
  5
3c1
100
AcDbEntity
  8
reperes
 62
7
100
AcDbPolyline
 90
2
 70
0
 10
412.519490
 20
58.874765
 30
0.0
 10
409.832279
 20
54.220389
 30
0.0
  0
LWPOLYLINE
  5
3c2
100
AcDbEntity
  8
reperes
 62
7
100
AcDbPolyline
 90
2
 70
0
 10
311.743854
 20
22.876921
 30
0.0
 10
314.432303
 20
18.220390
 30
0.0
  0
LWPOLYLINE
  5
3c3
100
AcDbEntity
  8
reperes
 62
7
100
AcDbPolyline
 90
2
 70
0
 10
314.389913
 20
25.519482
 30
0.0
 10
319.044222
 20
22.832315
 30
0.0
  0
LWPOLYLINE
  5
3c4
100
AcDbEntity
  8
reperes
 62
7
100
AcDbPolyline
 90
2
 70
0
 10
315.364362
 20
29.132314
 30
0.0
 10
320.732299
 20
29.132314
 30
0.0
  0
LWPOLYLINE
  5
3c5
100
AcDbEntity
  8
reperes
 62
7
100
AcDbPolyline
 90
2
 70
0
 10
314.387615
 20
32.743824
 30
0.0
 10
319.044216
 20
35.432315
 30
0.0
  0
LWPOLYLINE
  5
3c6
100
AcDbEntity
  8
reperes
 62
7
100
AcDbPolyline
 90
2
 70
0
 10
311.745057
 20
35.389804
 30
0.0
 10
314.432294
 20
40.044232
 30
0.0
  0
LWPOLYLINE
  5
3c7
100
AcDbEntity
  8
reperes
 62
7
100
AcDbPolyline
 90
2
 70
0
 10
308.132292
 20
36.364375
 30
0.0
 10
308.132293
 20
41.732306
 30
0.0
  0
LWPOLYLINE
  5
3c8
100
AcDbEntity
  8
reperes
 62
7
100
AcDbPolyline
 90
2
 70
0
 10
304.520853
 20
35.387503
 30
0.0
 10
301.832294
 20
40.044226
 30
0.0
  0
LWPOLYLINE
  5
3c9
100
AcDbEntity
  8
reperes
 62
7
100
AcDbPolyline
 90
2
 70
0
 10
301.874876
 20
32.745026
 30
0.0
 10
297.220376
 20
35.432307
 30
0.0
  0
LWPOLYLINE
  5
3ca
100
AcDbEntity
  8
reperes
 62
7
100
AcDbPolyline
 90
2
 70
0
 10
300.900617
 20
29.132304
 30
0.0
 10
295.532299
 20
29.132308
 30
0.0
  0
LWPOLYLINE
  5
3cb
100
AcDbEntity
  8
reperes
 62
7
100
AcDbPolyline
 90
2
 70
0
 10
301.877199
 20
25.520920
 30
0.0
 10
297.220380
 20
22.832307
 30
0.0
  0
LWPOLYLINE
  5
3cc
100
AcDbEntity
  8
reperes
 62
7
100
AcDbPolyline
 90
2
 70
0
 10
304.519511
 20
22.874766
 30
0.0
 10
301.832300
 20
18.220390
 30
0.0
  0
LWPOLYLINE
  5
3cd
100
AcDbEntity
  8
reperes
 62
7
100
AcDbPolyline
 90
2
 70
0
 10
347.743856
 20
22.876921
 30
0.0
 10
350.432305
 20
18.220390
 30
0.0
  0
LWPOLYLINE
  5
3ce
100
AcDbEntity
  8
reperes
 62
7
100
AcDbPolyline
 90
2
 70
0
 10
350.389915
 20
25.519482
 30
0.0
 10
355.044224
 20
22.832315
 30
0.0
  0
LWPOLYLINE
  5
3cf
100
AcDbEntity
  8
reperes
 62
7
100
AcDbPolyline
 90
2
 70
0
 10
351.364364
 20
29.132314
 30
0.0
 10
356.732301
 20
29.132314
 30
0.0
  0
LWPOLYLINE
  5
3d0
100
AcDbEntity
  8
reperes
 62
7
100
AcDbPolyline
 90
2
 70
0
 10
350.387617
 20
32.743824
 30
0.0
 10
355.044218
 20
35.432315
 30
0.0
  0
LWPOLYLINE
  5
3d1
100
AcDbEntity
  8
reperes
 62
7
100
AcDbPolyline
 90
2
 70
0
 10
347.745059
 20
35.389804
 30
0.0
 10
350.432296
 20
40.044232
 30
0.0
  0
LWPOLYLINE
  5
3d2
100
AcDbEntity
  8
reperes
 62
7
100
AcDbPolyline
 90
2
 70
0
 10
344.132294
 20
36.364375
 30
0.0
 10
344.132295
 20
41.732306
 30
0.0
  0
LWPOLYLINE
  5
3d3
100
AcDbEntity
  8
reperes
 62
7
100
AcDbPolyline
 90
2
 70
0
 10
340.520855
 20
35.387503
 30
0.0
 10
337.832296
 20
40.044226
 30
0.0
  0
LWPOLYLINE
  5
3d4
100
AcDbEntity
  8
reperes
 62
7
100
AcDbPolyline
 90
2
 70
0
 10
337.874878
 20
32.745026
 30
0.0
 10
333.220378
 20
35.432307
 30
0.0
  0
LWPOLYLINE
  5
3d5
100
AcDbEntity
  8
reperes
 62
7
100
AcDbPolyline
 90
2
 70
0
 10
336.900619
 20
29.132304
 30
0.0
 10
331.532301
 20
29.132308
 30
0.0
  0
LWPOLYLINE
  5
3d6
100
AcDbEntity
  8
reperes
 62
7
100
AcDbPolyline
 90
2
 70
0
 10
337.877201
 20
25.520920
 30
0.0
 10
333.220382
 20
22.832307
 30
0.0
  0
LWPOLYLINE
  5
3d7
100
AcDbEntity
  8
reperes
 62
7
100
AcDbPolyline
 90
2
 70
0
 10
340.519513
 20
22.874766
 30
0.0
 10
337.832302
 20
18.220390
 30
0.0
  0
LWPOLYLINE
  5
3d8
100
AcDbEntity
  8
reperes
 62
7
100
AcDbPolyline
 90
2
 70
0
 10
383.743832
 20
22.876929
 30
0.0
 10
386.432281
 20
18.220398
 30
0.0
  0
LWPOLYLINE
  5
3d9
100
AcDbEntity
  8
reperes
 62
7
100
AcDbPolyline
 90
2
 70
0
 10
386.389890
 20
25.519490
 30
0.0
 10
391.044200
 20
22.832323
 30
0.0
  0
LWPOLYLINE
  5
3da
100
AcDbEntity
  8
reperes
 62
7
100
AcDbPolyline
 90
2
 70
0
 10
387.364340
 20
29.132322
 30
0.0
 10
392.732277
 20
29.132322
 30
0.0
  0
LWPOLYLINE
  5
3db
100
AcDbEntity
  8
reperes
 62
7
100
AcDbPolyline
 90
2
 70
0
 10
386.387593
 20
32.743832
 30
0.0
 10
391.044194
 20
35.432323
 30
0.0
  0
LWPOLYLINE
  5
3dc
100
AcDbEntity
  8
reperes
 62
7
100
AcDbPolyline
 90
2
 70
0
 10
383.745034
 20
35.389812
 30
0.0
 10
386.432272
 20
40.044240
 30
0.0
  0
LWPOLYLINE
  5
3dd
100
AcDbEntity
  8
reperes
 62
7
100
AcDbPolyline
 90
2
 70
0
 10
380.132270
 20
36.364382
 30
0.0
 10
380.132271
 20
41.732314
 30
0.0
  0
LWPOLYLINE
  5
3de
100
AcDbEntity
  8
reperes
 62
7
100
AcDbPolyline
 90
2
 70
0
 10
376.520830
 20
35.387511
 30
0.0
 10
373.832271
 20
40.044234
 30
0.0
  0
LWPOLYLINE
  5
3df
100
AcDbEntity
  8
reperes
 62
7
100
AcDbPolyline
 90
2
 70
0
 10
373.874853
 20
32.745034
 30
0.0
 10
369.220354
 20
35.432315
 30
0.0
  0
LWPOLYLINE
  5
3e0
100
AcDbEntity
  8
reperes
 62
7
100
AcDbPolyline
 90
2
 70
0
 10
372.900594
 20
29.132312
 30
0.0
 10
367.532277
 20
29.132316
 30
0.0
  0
LWPOLYLINE
  5
3e1
100
AcDbEntity
  8
reperes
 62
7
100
AcDbPolyline
 90
2
 70
0
 10
373.877177
 20
25.520928
 30
0.0
 10
369.220358
 20
22.832315
 30
0.0
  0
LWPOLYLINE
  5
3e2
100
AcDbEntity
  8
reperes
 62
7
100
AcDbPolyline
 90
2
 70
0
 10
376.519488
 20
22.874774
 30
0.0
 10
373.832277
 20
18.220398
 30
0.0
  0
LWPOLYLINE
  5
3e3
100
AcDbEntity
  8
reperes
 62
7
100
AcDbPolyline
 90
2
 70
0
 10
419.743834
 20
22.876929
 30
0.0
 10
422.432283
 20
18.220398
 30
0.0
  0
LWPOLYLINE
  5
3e4
100
AcDbEntity
  8
reperes
 62
7
100
AcDbPolyline
 90
2
 70
0
 10
422.389892
 20
25.519490
 30
0.0
 10
427.044202
 20
22.832323
 30
0.0
  0
LWPOLYLINE
  5
3e5
100
AcDbEntity
  8
reperes
 62
7
100
AcDbPolyline
 90
2
 70
0
 10
423.364342
 20
29.132322
 30
0.0
 10
428.732279
 20
29.132322
 30
0.0
  0
LWPOLYLINE
  5
3e6
100
AcDbEntity
  8
reperes
 62
7
100
AcDbPolyline
 90
2
 70
0
 10
422.387595
 20
32.743832
 30
0.0
 10
427.044196
 20
35.432323
 30
0.0
  0
LWPOLYLINE
  5
3e7
100
AcDbEntity
  8
reperes
 62
7
100
AcDbPolyline
 90
2
 70
0
 10
419.745036
 20
35.389812
 30
0.0
 10
422.432274
 20
40.044240
 30
0.0
  0
LWPOLYLINE
  5
3e8
100
AcDbEntity
  8
reperes
 62
7
100
AcDbPolyline
 90
2
 70
0
 10
416.132272
 20
36.364382
 30
0.0
 10
416.132273
 20
41.732314
 30
0.0
  0
LWPOLYLINE
  5
3e9
100
AcDbEntity
  8
reperes
 62
7
100
AcDbPolyline
 90
2
 70
0
 10
412.520832
 20
35.387511
 30
0.0
 10
409.832274
 20
40.044234
 30
0.0
  0
LWPOLYLINE
  5
3ea
100
AcDbEntity
  8
reperes
 62
7
100
AcDbPolyline
 90
2
 70
0
 10
409.874855
 20
32.745034
 30
0.0
 10
405.220356
 20
35.432315
 30
0.0
  0
LWPOLYLINE
  5
3eb
100
AcDbEntity
  8
reperes
 62
7
100
AcDbPolyline
 90
2
 70
0
 10
408.900596
 20
29.132312
 30
0.0
 10
403.532279
 20
29.132316
 30
0.0
  0
LWPOLYLINE
  5
3ec
100
AcDbEntity
  8
reperes
 62
7
100
AcDbPolyline
 90
2
 70
0
 10
409.877179
 20
25.520928
 30
0.0
 10
405.220360
 20
22.832315
 30
0.0
  0
LWPOLYLINE
  5
3ed
100
AcDbEntity
  8
reperes
 62
7
100
AcDbPolyline
 90
2
 70
0
 10
412.519490
 20
22.874774
 30
0.0
 10
409.832279
 20
18.220398
 30
0.0
  0
LWPOLYLINE
  5
3ee
100
AcDbEntity
  8
reperes
 62
7
100
AcDbPolyline
 90
2
 70
0
 10
459.743833
 20
94.876920
 30
0.0
 10
462.432282
 20
90.220389
 30
0.0
  0
LWPOLYLINE
  5
3ef
100
AcDbEntity
  8
reperes
 62
7
100
AcDbPolyline
 90
2
 70
0
 10
462.389892
 20
97.519481
 30
0.0
 10
467.044202
 20
94.832314
 30
0.0
  0
LWPOLYLINE
  5
3f0
100
AcDbEntity
  8
reperes
 62
7
100
AcDbPolyline
 90
2
 70
0
 10
463.364341
 20
101.132313
 30
0.0
 10
468.732278
 20
101.132313
 30
0.0
  0
LWPOLYLINE
  5
3f1
100
AcDbEntity
  8
reperes
 62
7
100
AcDbPolyline
 90
2
 70
0
 10
462.387594
 20
104.743823
 30
0.0
 10
467.044195
 20
107.432314
 30
0.0
  0
LWPOLYLINE
  5
3f2
100
AcDbEntity
  8
reperes
 62
7
100
AcDbPolyline
 90
2
 70
0
 10
459.745036
 20
107.389803
 30
0.0
 10
462.432273
 20
112.044231
 30
0.0
  0
LWPOLYLINE
  5
3f3
100
AcDbEntity
  8
reperes
 62
7
100
AcDbPolyline
 90
2
 70
0
 10
456.132271
 20
108.364373
 30
0.0
 10
456.132272
 20
113.732305
 30
0.0
  0
LWPOLYLINE
  5
3f4
100
AcDbEntity
  8
reperes
 62
7
100
AcDbPolyline
 90
2
 70
0
 10
452.520832
 20
107.387502
 30
0.0
 10
449.832273
 20
112.044225
 30
0.0
  0
LWPOLYLINE
  5
3f5
100
AcDbEntity
  8
reperes
 62
7
100
AcDbPolyline
 90
2
 70
0
 10
449.874855
 20
104.745025
 30
0.0
 10
445.220356
 20
107.432306
 30
0.0
  0
LWPOLYLINE
  5
3f6
100
AcDbEntity
  8
reperes
 62
7
100
AcDbPolyline
 90
2
 70
0
 10
448.900596
 20
101.132303
 30
0.0
 10
443.532278
 20
101.132307
 30
0.0
  0
LWPOLYLINE
  5
3f7
100
AcDbEntity
  8
reperes
 62
7
100
AcDbPolyline
 90
2
 70
0
 10
449.877179
 20
97.520919
 30
0.0
 10
445.220359
 20
94.832306
 30
0.0
  0
LWPOLYLINE
  5
3f8
100
AcDbEntity
  8
reperes
 62
7
100
AcDbPolyline
 90
2
 70
0
 10
452.519490
 20
94.874765
 30
0.0
 10
449.832279
 20
90.220389
 30
0.0
  0
LWPOLYLINE
  5
3f9
100
AcDbEntity
  8
séparations
 62
7
100
AcDbPolyline
 90
2
 70
0
 10
192.132299
 20
120.132310
 30
0.0
 10
192.132299
 20
10.132294
 30
0.0
  0
LWPOLYLINE
  5
3fa
100
AcDbEntity
  8
séparations
 62
7
100
AcDbPolyline
 90
2
 70
0
 10
80.132290
 20
40.242081
 30
0.0
 10
80.132288
 20
10.132294
 30
0.0
  0
LWPOLYLINE
  5
3fb
100
AcDbEntity
  8
séparations
 62
7
100
AcDbPolyline
 90
2
 70
0
 10
80.132290
 20
76.241956
 30
0.0
 10
80.132293
 20
54.022634
 30
0.0
  0
LWPOLYLINE
  5
3fc
100
AcDbEntity
  8
séparations
 62
7
100
AcDbPolyline
 90
2
 70
0
 10
80.132288
 20
120.132310
 30
0.0
 10
80.132290
 20
90.023028
 30
0.0
  0
LWPOLYLINE
  5
3fd
100
AcDbEntity
  8
séparations
 62
7
100
AcDbPolyline
 90
2
 70
0
 10
437.298941
 20
120.132310
 30
0.0
 10
437.298941
 20
10.132294
 30
0.0
  0
LWPOLYLINE
  5
3fe
100
AcDbEntity
  8
séparations
 62
7
100
AcDbPolyline
 90
2
 70
0
 10
297.132269
 20
47.146023
 30
0.0
 10
427.132274
 20
47.146023
 30
0.0
  0
LWPOLYLINE
  5
3ff
100
AcDbEntity
  8
séparations
 62
7
100
AcDbPolyline
 90
2
 70
0
 10
288.023961
 20
107.034384
 30
0.0
 10
288.023961
 20
106.519688
 30
0.0
  0
LWPOLYLINE
  5
400
100
AcDbEntity
  8
séparations
 62
7
100
AcDbPolyline
 90
2
 70
0
 10
288.023961
 20
120.132310
 30
0.0
 10
288.023961
 20
107.034384
 30
0.0
  0
LWPOLYLINE
  5
401
100
AcDbEntity
  8
séparations
 62
7
100
AcDbPolyline
 90
2
 70
0
 10
288.023961
 20
34.036814
 30
0.0
 10
288.023961
 20
10.132294
 30
0.0
  0
ENDSEC
  0
SECTION
  2
OBJECTS
  0
DICTIONARY
  5
C
330
0
100
AcDbDictionary
  3
ACAD_GROUP
350
D
  3
ACAD_MLINESTYLE
350
17
  0
DICTIONARY
  5
D
330
C
100
AcDbDictionary
  0
DICTIONARY
  5
1A
330
C
100
AcDbDictionary
  0
DICTIONARY
  5
17
330
C
100
AcDbDictionary
  3
STANDARD
350
18
  0
DICTIONARY
  5
19
330
C
100
AcDbDictionary
  0
ENDSEC
  0
EOF
