  0
SECTION
  2
HEADER
  9
$ACADVER
  1
AC1014
  9
$HANDSEED
  5
FFFF
  9
$MEASUREMENT
 70
     1
  0
ENDSEC
  0
SECTION
  2
TABLES
  0
TABLE
  2
VPORT
  5
8
330
0
100
AcDbSymbolTable
 70
     4
  0
VPORT
  5
2E
330
8
100
AcDbSymbolTableRecord
100
AcDbViewportTableRecord
  2
*ACTIVE
 70
     0
 10
0.0
 20
0.0
 11
1.0
 21
1.0
 12
210.0
 22
148.5
 13
0.0
 23
0.0
 14
10.0
 24
10.0
 15
10.0
 25
10.0
 16
0.0
 26
0.0
 36
1.0
 17
0.0
 27
0.0
 37
0.0
 40
341.0
 41
1.24
 42
50.0
 43
0.0
 44
0.0
 50
0.0
 51
0.0
 71
     0
 72
   100
 73
     1
 74
     3
 75
     0
 76
     0
 77
     0
 78
     0
  0
ENDTAB
  0
TABLE
  2
LTYPE
  5
5
330
0
100
AcDbSymbolTable
 70
     1
  0
LTYPE
  5
14
330
5
100
AcDbSymbolTableRecord
100
AcDbLinetypeTableRecord
  2
BYBLOCK
 70
     0
  3

 72
    65
 73
     0
 40
0.0
  0
LTYPE
  5
15
330
5
100
AcDbSymbolTableRecord
100
AcDbLinetypeTableRecord
  2
BYLAYER
 70
     0
  3

 72
    65
 73
     0
 40
0.0
  0
LTYPE
  5
16
330
5
100
AcDbSymbolTableRecord
100
AcDbLinetypeTableRecord
  2
CONTINUOUS
 70
     0
  3
Solid line
 72
    65
 73
     0
 40
0.0
  0
ENDTAB
  0
TABLE
  2
LAYER
  5
2
100
AcDbSymbolTable
 70
2
  0
LAYER
  5
50
100
AcDbSymbolTableRecord
100
AcDbLayerTableRecord
  2
0
 70
0
  6
CONTINUOUS
  0
LAYER
  5
51
100
AcDbSymbolTableRecord
100
AcDbLayerTableRecord
  2
Calque_1
 70
0
  6
CONTINUOUS
  0
ENDTAB
  0
TABLE
  2
STYLE
  5
3
330
0
100
AcDbSymbolTable
 70
     1
  0
STYLE
  5
11
330
3
100
AcDbSymbolTableRecord
100
AcDbTextStyleTableRecord
  2
STANDARD
 70
     0
 40
0.0
 41
1.0
 50
0.0
 71
     0
 42
2.5
  3
txt
  4

  0
ENDTAB
  0
TABLE
  2
VIEW
  5
6
330
0
100
AcDbSymbolTable
 70
     0
  0
ENDTAB
  0
TABLE
  2
UCS
  5
7
330
0
100
AcDbSymbolTable
 70
     0
  0
ENDTAB
  0
TABLE
  2
APPID
  5
9
330
0
100
AcDbSymbolTable
 70
     2
  0
APPID
  5
12
330
9
100
AcDbSymbolTableRecord
100
AcDbRegAppTableRecord
  2
ACAD
 70
     0
  0
ENDTAB
  0
TABLE
  2
DIMSTYLE
  5
A
330
0
100
AcDbSymbolTable
 70
     1
  0
DIMSTYLE
105
27
330
A
100
AcDbSymbolTableRecord
100
AcDbDimStyleTableRecord
  2
ISO-25
 70
     0
  3

  4

  5

  6

  7

 40
1.0
 41
2.5
 42
0.625
 43
3.75
 44
1.25
 45
0.0
 46
0.0
 47
0.0
 48
0.0
140
2.5
141
2.5
142
0.0
143
0.03937007874016
144
1.0
145
0.0
146
1.0
147
0.625
 71
     0
 72
     0
 73
     0
 74
     0
 75
     0
 76
     0
 77
     1
 78
     8
170
     0
171
     3
172
     1
173
     0
174
     0
175
     0
176
     0
177
     0
178
     0
270
     2
271
     2
272
     2
273
     2
274
     3
340
11
275
     0
280
     0
281
     0
282
     0
283
     0
284
     8
285
     0
286
     0
287
     3
288
     0
  0
ENDTAB
  0
TABLE
  2
BLOCK_RECORD
  5
1
330
0
100
AcDbSymbolTable
 70
     1
  0
BLOCK_RECORD
  5
1F
330
1
100
AcDbSymbolTableRecord
100
AcDbBlockTableRecord
  2
*MODEL_SPACE
  0
BLOCK_RECORD
  5
1B
330
1
100
AcDbSymbolTableRecord
100
AcDbBlockTableRecord
  2
*PAPER_SPACE
  0
ENDTAB
  0
ENDSEC
  0
SECTION
  2
BLOCKS
  0
BLOCK
  5
20
330
1F
100
AcDbEntity
  8
0
100
AcDbBlockBegin
  2
*MODEL_SPACE
 70
     0
 10
0.0
 20
0.0
 30
0.0
  3
*MODEL_SPACE
  1

  0
ENDBLK
  5
21
330
1F
100
AcDbEntity
  8
0
100
AcDbBlockEnd
  0
BLOCK
  5
1C
330
1B
100
AcDbEntity
 67
     1
  8
0
100
AcDbBlockBegin
  2
*PAPER_SPACE
  1

  0
ENDBLK
  5
1D
330
1B
100
AcDbEntity
 67
     1
  8
0
100
AcDbBlockEnd
  0
ENDSEC
  0
SECTION
  2
ENTITIES
  0
LWPOLYLINE
  5
100
100
AcDbEntity
  8
Calque_1
 62
7
100
AcDbPolyline
 90
30
 70
1
 10
338.666950
 20
86.332590
 30
0.0
 10
338.594950
 20
86.222520
 30
0.0
 10
338.404450
 20
86.078590
 30
0.0
 10
338.099650
 20
85.947350
 30
0.0
 10
337.710180
 20
85.892350
 30
0.0
 10
337.024380
 20
86.154820
 30
0.0
 10
336.824355
 20
86.453265
 30
0.0
 10
336.757680
 20
86.823680
 30
0.0
 10
336.826473
 20
87.205740
 30
0.0
 10
337.032850
 20
87.513720
 30
0.0
 10
337.345060
 20
87.716918
 30
0.0
 10
337.731350
 20
87.784650
 30
0.0
 10
338.391750
 20
87.551820
 30
0.0
 10
338.391750
 20
87.606820
 30
0.0
 10
338.480650
 20
87.725350
 30
0.0
 10
338.565350
 20
87.606820
 30
0.0
 10
338.565350
 20
87.221590
 30
0.0
 10
338.480650
 20
87.107290
 30
0.0
 10
338.391750
 20
87.208890
 30
0.0
 10
338.180080
 20
87.492520
 30
0.0
 10
337.718650
 20
87.611050
 30
0.0
 10
337.147150
 20
87.390920
 30
0.0
 10
336.931250
 20
86.827890
 30
0.0
 10
337.151380
 20
86.277550
 30
0.0
 10
337.718650
 20
86.065890
 30
0.0
 10
338.147273
 20
86.142090
 30
0.0
 10
338.510280
 20
86.370690
 30
0.0
 10
338.586480
 20
86.412990
 30
0.0
 10
338.641480
 20
86.387590
 30
0.0
 10
338.666880
 20
86.332590
 30
0.0
  0
LWPOLYLINE
  5
101
100
AcDbEntity
  8
Calque_1
 62
7
100
AcDbPolyline
 90
25
 70
1
 10
340.798890
 20
85.960050
 30
0.0
 10
340.798890
 20
86.239450
 30
0.0
 10
340.428475
 20
85.979103
 30
0.0
 10
340.028430
 20
85.892320
 30
0.0
 10
339.617790
 20
86.044720
 30
0.0
 10
339.465390
 20
86.446890
 30
0.0
 10
339.465390
 20
87.551790
 30
0.0
 10
339.236790
 20
87.551790
 30
0.0
 10
339.122490
 20
87.640690
 30
0.0
 10
339.236790
 20
87.725390
 30
0.0
 10
339.638960
 20
87.725390
 30
0.0
 10
339.638960
 20
86.446930
 30
0.0
 10
339.749030
 20
86.175990
 30
0.0
 10
340.024190
 20
86.065930
 30
0.0
 10
340.429535
 20
86.161180
 30
0.0
 10
340.798890
 20
86.446930
 30
0.0
 10
340.798890
 20
87.551830
 30
0.0
 10
340.485630
 20
87.551830
 30
0.0
 10
340.367090
 20
87.640730
 30
0.0
 10
340.485630
 20
87.725430
 30
0.0
 10
340.972460
 20
87.725430
 30
0.0
 10
340.972460
 20
86.133700
 30
0.0
 10
341.116390
 20
86.133700
 30
0.0
 10
341.230690
 20
86.049000
 30
0.0
 10
341.116390
 20
85.960100
 30
0.0
  0
LWPOLYLINE
  5
102
100
AcDbEntity
  8
Calque_1
 62
7
100
AcDbPolyline
 90
25
 70
1
 10
342.266200
 20
87.725350
 30
0.0
 10
343.197540
 20
87.725350
 30
0.0
 10
343.311840
 20
87.640650
 30
0.0
 10
343.197540
 20
87.551750
 30
0.0
 10
342.266200
 20
87.551750
 30
0.0
 10
342.266200
 20
86.421450
 30
0.0
 10
342.393200
 20
86.163210
 30
0.0
 10
342.740340
 20
86.065810
 30
0.0
 10
343.117100
 20
86.112410
 30
0.0
 10
343.443070
 20
86.235180
 30
0.0
 10
343.510770
 20
86.260580
 30
0.0
 10
343.565770
 20
86.235180
 30
0.0
 10
343.591170
 20
86.175880
 30
0.0
 10
343.303300
 20
85.985380
 30
0.0
 10
342.748730
 20
85.892280
 30
0.0
 10
342.270370
 20
86.031980
 30
0.0
 10
342.092570
 20
86.412980
 30
0.0
 10
342.092570
 20
87.551750
 30
0.0
 10
341.779300
 20
87.551750
 30
0.0
 10
341.660770
 20
87.640650
 30
0.0
 10
341.779300
 20
87.725350
 30
0.0
 10
342.092570
 20
87.725350
 30
0.0
 10
342.092570
 20
88.229120
 30
0.0
 10
342.181470
 20
88.343420
 30
0.0
 10
342.266170
 20
88.229120
 30
0.0
  0
LWPOLYLINE
  5
103
100
AcDbEntity
  8
Calque_1
 62
7
100
AcDbPolyline
 90
15
 70
1
 10
345.287150
 20
87.784620
 30
0.0
 10
345.661800
 20
87.714770
 30
0.0
 10
345.972950
 20
87.505220
 30
0.0
 10
346.182500
 20
87.198303
 30
0.0
 10
346.252350
 20
86.827890
 30
0.0
 10
346.181443
 20
86.466995
 30
0.0
 10
345.968720
 20
86.163250
 30
0.0
 10
345.287150
 20
85.892320
 30
0.0
 10
344.601350
 20
86.167490
 30
0.0
 10
344.391800
 20
86.473345
 30
0.0
 10
344.321950
 20
86.840590
 30
0.0
 10
344.391800
 20
87.201478
 30
0.0
 10
344.601350
 20
87.505220
 30
0.0
 10
344.914615
 20
87.714770
 30
0.0
 10
345.287150
 20
87.784620
 30
0.0
  0
LWPOLYLINE
  5
104
100
AcDbEntity
  8
Calque_1
 62
7
100
AcDbPolyline
 90
9
 70
1
 10
345.287150
 20
87.611050
 30
0.0
 10
344.724120
 20
87.386690
 30
0.0
 10
344.495520
 20
86.840590
 30
0.0
 10
344.724120
 20
86.290250
 30
0.0
 10
345.287150
 20
86.065890
 30
0.0
 10
345.845950
 20
86.290250
 30
0.0
 10
346.078780
 20
86.827890
 30
0.0
 10
345.850180
 20
87.386690
 30
0.0
 10
345.287150
 20
87.611050
 30
0.0
  0
LWPOLYLINE
  5
105
100
AcDbEntity
  8
Calque_1
 62
7
100
AcDbPolyline
 90
30
 70
1
 10
348.756830
 20
88.292620
 30
0.0
 10
348.651000
 20
88.305320
 30
0.0
 10
348.413930
 20
88.330720
 30
0.0
 10
348.172630
 20
88.343420
 30
0.0
 10
347.833960
 20
88.241820
 30
0.0
 10
347.702730
 20
87.983590
 30
0.0
 10
347.702730
 20
87.725350
 30
0.0
 10
348.502830
 20
87.725350
 30
0.0
 10
348.617130
 20
87.640650
 30
0.0
 10
348.502830
 20
87.551750
 30
0.0
 10
347.702730
 20
87.551750
 30
0.0
 10
347.702730
 20
86.133580
 30
0.0
 10
348.456260
 20
86.133580
 30
0.0
 10
348.570560
 20
86.048880
 30
0.0
 10
348.456260
 20
85.959980
 30
0.0
 10
347.114300
 20
85.959980
 30
0.0
 10
347.000000
 20
86.048880
 30
0.0
 10
347.114300
 20
86.133580
 30
0.0
 10
347.529160
 20
86.133580
 30
0.0
 10
347.529160
 20
87.551750
 30
0.0
 10
347.156630
 20
87.551750
 30
0.0
 10
347.042330
 20
87.640650
 30
0.0
 10
347.156630
 20
87.725350
 30
0.0
 10
347.529160
 20
87.725350
 30
0.0
 10
347.529160
 20
87.983590
 30
0.0
 10
347.711200
 20
88.364590
 30
0.0
 10
348.181100
 20
88.516990
 30
0.0
 10
348.769530
 20
88.461990
 30
0.0
 10
348.845730
 20
88.377290
 30
0.0
 10
348.756830
 20
88.292590
 30
0.0
  0
LWPOLYLINE
  5
106
100
AcDbEntity
  8
Calque_1
 62
7
100
AcDbPolyline
 90
30
 70
1
 10
351.295180
 20
88.292620
 30
0.0
 10
351.189340
 20
88.305320
 30
0.0
 10
350.952280
 20
88.330720
 30
0.0
 10
350.710980
 20
88.343420
 30
0.0
 10
350.372310
 20
88.241820
 30
0.0
 10
350.241080
 20
87.983590
 30
0.0
 10
350.241080
 20
87.725350
 30
0.0
 10
351.041180
 20
87.725350
 30
0.0
 10
351.155480
 20
87.640650
 30
0.0
 10
351.041180
 20
87.551750
 30
0.0
 10
350.241080
 20
87.551750
 30
0.0
 10
350.241080
 20
86.133580
 30
0.0
 10
350.994610
 20
86.133580
 30
0.0
 10
351.108910
 20
86.048880
 30
0.0
 10
350.994610
 20
85.959980
 30
0.0
 10
349.652640
 20
85.959980
 30
0.0
 10
349.538340
 20
86.048880
 30
0.0
 10
349.652640
 20
86.133580
 30
0.0
 10
350.067510
 20
86.133580
 30
0.0
 10
350.067510
 20
87.551750
 30
0.0
 10
349.694980
 20
87.551750
 30
0.0
 10
349.580680
 20
87.640650
 30
0.0
 10
349.694980
 20
87.725350
 30
0.0
 10
350.067510
 20
87.725350
 30
0.0
 10
350.067510
 20
87.983590
 30
0.0
 10
350.249540
 20
88.364590
 30
0.0
 10
350.719440
 20
88.516990
 30
0.0
 10
351.307880
 20
88.461990
 30
0.0
 10
351.384080
 20
88.377290
 30
0.0
 10
351.295180
 20
88.292590
 30
0.0
  0
LWPOLYLINE
  5
107
100
AcDbEntity
  8
Calque_1
 62
7
100
AcDbPolyline
 90
22
 70
1
 10
372.264070
 20
86.802490
 30
0.0
 10
370.503010
 20
86.802490
 30
0.0
 10
370.782410
 20
86.264850
 30
0.0
 10
371.358140
 20
86.065890
 30
0.0
 10
371.764540
 20
86.129390
 30
0.0
 10
372.098970
 20
86.294490
 30
0.0
 10
372.166670
 20
86.324090
 30
0.0
 10
372.221670
 20
86.298690
 30
0.0
 10
372.247070
 20
86.239390
 30
0.0
 10
371.942270
 20
86.010790
 30
0.0
 10
371.353840
 20
85.892260
 30
0.0
 10
370.958020
 20
85.964228
 30
0.0
 10
370.625700
 20
86.180130
 30
0.0
 10
370.403453
 20
86.498685
 30
0.0
 10
370.329370
 20
86.878630
 30
0.0
 10
370.399220
 20
87.232110
 30
0.0
 10
370.608770
 20
87.522090
 30
0.0
 10
371.294570
 20
87.784560
 30
0.0
 10
371.682980
 20
87.716828
 30
0.0
 10
371.993070
 20
87.513630
 30
0.0
 10
372.196268
 20
87.202480
 30
0.0
 10
372.264000
 20
86.802430
 30
0.0
  0
LWPOLYLINE
  5
108
100
AcDbEntity
  8
Calque_1
 62
7
100
AcDbPolyline
 90
6
 70
1
 10
370.503010
 20
86.976050
 30
0.0
 10
372.086270
 20
86.976050
 30
0.0
 10
371.819570
 20
87.437490
 30
0.0
 10
371.294640
 20
87.611050
 30
0.0
 10
370.773940
 20
87.437490
 30
0.0
 10
370.503010
 20
86.976050
 30
0.0
  0
LWPOLYLINE
  5
109
100
AcDbEntity
  8
Calque_1
 62
7
100
AcDbPolyline
 90
39
 70
1
 10
373.075220
 20
87.725350
 30
0.0
 10
373.075220
 20
87.505220
 30
0.0
 10
373.282650
 20
87.721120
 30
0.0
 10
373.519720
 20
87.784620
 30
0.0
 10
373.757843
 20
87.709478
 30
0.0
 10
373.930350
 20
87.484050
 30
0.0
 10
374.408720
 20
87.784620
 30
0.0
 10
374.721990
 20
87.649150
 30
0.0
 10
374.853220
 20
87.327420
 30
0.0
 10
374.853220
 20
86.133620
 30
0.0
 10
374.997150
 20
86.133620
 30
0.0
 10
375.111450
 20
86.048920
 30
0.0
 10
374.997150
 20
85.960020
 30
0.0
 10
374.683890
 20
85.960020
 30
0.0
 10
374.683890
 20
87.310460
 30
0.0
 10
374.599190
 20
87.517890
 30
0.0
 10
374.404460
 20
87.610990
 30
0.0
 10
373.964190
 20
87.263860
 30
0.0
 10
373.964190
 20
86.133560
 30
0.0
 10
374.108120
 20
86.133560
 30
0.0
 10
374.222420
 20
86.048860
 30
0.0
 10
374.108120
 20
85.959960
 30
0.0
 10
373.794860
 20
85.959960
 30
0.0
 10
373.794860
 20
87.297700
 30
0.0
 10
373.710160
 20
87.513600
 30
0.0
 10
373.519660
 20
87.611000
 30
0.0
 10
373.075160
 20
87.263870
 30
0.0
 10
373.075160
 20
86.133570
 30
0.0
 10
373.219090
 20
86.133570
 30
0.0
 10
373.333390
 20
86.048870
 30
0.0
 10
373.219090
 20
85.959970
 30
0.0
 10
372.757660
 20
85.959970
 30
0.0
 10
372.647590
 20
86.048870
 30
0.0
 10
372.761890
 20
86.133570
 30
0.0
 10
372.905830
 20
86.133570
 30
0.0
 10
372.905830
 20
87.551740
 30
0.0
 10
372.761890
 20
87.551740
 30
0.0
 10
372.647590
 20
87.640640
 30
0.0
 10
372.761890
 20
87.725340
 30
0.0
  0
LWPOLYLINE
  5
10a
100
AcDbEntity
  8
Calque_1
 62
7
100
AcDbPolyline
 90
22
 70
1
 10
375.749030
 20
87.725350
 30
0.0
 10
375.749030
 20
87.378220
 30
0.0
 10
376.091930
 20
87.691490
 30
0.0
 10
376.506800
 20
87.784590
 30
0.0
 10
377.162970
 20
87.526360
 30
0.0
 10
377.429670
 20
86.895590
 30
0.0
 10
377.162970
 20
86.260590
 30
0.0
 10
376.506800
 20
86.002360
 30
0.0
 10
376.080293
 20
86.103960
 30
0.0
 10
375.749030
 20
86.408760
 30
0.0
 10
375.749030
 20
85.346190
 30
0.0
 10
376.163900
 20
85.346190
 30
0.0
 10
376.278200
 20
85.261490
 30
0.0
 10
376.163900
 20
85.172590
 30
0.0
 10
375.346870
 20
85.172590
 30
0.0
 10
375.232570
 20
85.261490
 30
0.0
 10
375.346870
 20
85.346190
 30
0.0
 10
375.575470
 20
85.346190
 30
0.0
 10
375.575470
 20
87.551760
 30
0.0
 10
375.346870
 20
87.551760
 30
0.0
 10
375.232570
 20
87.640660
 30
0.0
 10
375.346870
 20
87.725360
 30
0.0
  0
LWPOLYLINE
  5
10b
100
AcDbEntity
  8
Calque_1
 62
7
100
AcDbPolyline
 90
9
 70
1
 10
376.502570
 20
87.611050
 30
0.0
 10
375.969170
 20
87.399390
 30
0.0
 10
375.749030
 20
86.895620
 30
0.0
 10
375.969170
 20
86.383390
 30
0.0
 10
376.502570
 20
86.175950
 30
0.0
 10
377.035970
 20
86.383390
 30
0.0
 10
377.256100
 20
86.887150
 30
0.0
 10
377.040200
 20
87.403620
 30
0.0
 10
376.502570
 20
87.611050
 30
0.0
  0
LWPOLYLINE
  5
10c
100
AcDbEntity
  8
Calque_1
 62
7
100
AcDbPolyline
 90
32
 70
1
 10
379.527750
 20
87.179250
 30
0.0
 10
379.383810
 20
87.488290
 30
0.0
 10
379.007050
 20
87.611050
 30
0.0
 10
378.710710
 20
87.539050
 30
0.0
 10
378.422850
 20
87.268110
 30
0.0
 10
378.376250
 20
87.213110
 30
0.0
 10
378.376250
 20
86.133610
 30
0.0
 10
378.566750
 20
86.133610
 30
0.0
 10
378.685280
 20
86.048910
 30
0.0
 10
378.566750
 20
85.960010
 30
0.0
 10
378.007950
 20
85.960010
 30
0.0
 10
377.893650
 20
86.048910
 30
0.0
 10
378.007950
 20
86.133610
 30
0.0
 10
378.202680
 20
86.133610
 30
0.0
 10
378.202680
 20
88.343410
 30
0.0
 10
377.974080
 20
88.343410
 30
0.0
 10
377.859780
 20
88.432310
 30
0.0
 10
377.974080
 20
88.517010
 30
0.0
 10
378.376250
 20
88.517010
 30
0.0
 10
378.376250
 20
87.429040
 30
0.0
 10
378.685280
 20
87.704210
 30
0.0
 10
379.028180
 20
87.784610
 30
0.0
 10
379.510780
 20
87.615280
 30
0.0
 10
379.701280
 20
87.191940
 30
0.0
 10
379.701280
 20
86.133610
 30
0.0
 10
379.891780
 20
86.133610
 30
0.0
 10
380.010320
 20
86.048910
 30
0.0
 10
379.891780
 20
85.960010
 30
0.0
 10
379.337220
 20
85.960010
 30
0.0
 10
379.222920
 20
86.048910
 30
0.0
 10
379.337220
 20
86.133610
 30
0.0
 10
379.527720
 20
86.133610
 30
0.0
  0
LWPOLYLINE
  5
10d
100
AcDbEntity
  8
Calque_1
 62
7
100
AcDbPolyline
 90
25
 70
1
 10
380.745290
 20
87.560250
 30
0.0
 10
381.033160
 20
87.716890
 30
0.0
 10
381.481890
 20
87.784590
 30
0.0
 10
381.968730
 20
87.636420
 30
0.0
 10
382.163460
 20
87.263890
 30
0.0
 10
382.163460
 20
86.133590
 30
0.0
 10
382.392060
 20
86.133590
 30
0.0
 10
382.506360
 20
86.048890
 30
0.0
 10
382.392060
 20
85.959990
 30
0.0
 10
381.989890
 20
85.959990
 30
0.0
 10
381.989890
 20
86.243630
 30
0.0
 10
381.599370
 20
85.980103
 30
0.0
 10
381.181330
 20
85.892260
 30
0.0
 10
380.702960
 20
86.040430
 30
0.0
 10
380.520930
 20
86.434130
 30
0.0
 10
380.766460
 20
86.878630
 30
0.0
 10
381.414160
 20
87.052190
 30
0.0
 10
381.989890
 20
86.963290
 30
0.0
 10
381.989890
 20
87.263860
 30
0.0
 10
381.845960
 20
87.513630
 30
0.0
 10
381.469190
 20
87.611030
 30
0.0
 10
381.067030
 20
87.543330
 30
0.0
 10
380.825730
 20
87.475630
 30
0.0
 10
380.766430
 20
87.501030
 30
0.0
 10
380.745230
 20
87.560330
 30
0.0
  0
LWPOLYLINE
  5
10e
100
AcDbEntity
  8
Calque_1
 62
7
100
AcDbPolyline
 90
9
 70
1
 10
381.989890
 20
86.434190
 30
0.0
 10
381.989890
 20
86.815190
 30
0.0
 10
381.448030
 20
86.878690
 30
0.0
 10
380.901930
 20
86.751690
 30
0.0
 10
380.694490
 20
86.429950
 30
0.0
 10
380.825730
 20
86.163250
 30
0.0
 10
381.177090
 20
86.065850
 30
0.0
 10
381.587730
 20
86.150550
 30
0.0
 10
381.989890
 20
86.434190
 30
0.0
  0
LWPOLYLINE
  5
10f
100
AcDbEntity
  8
Calque_1
 62
7
100
AcDbPolyline
 90
38
 70
1
 10
384.667940
 20
86.455350
 30
0.0
 10
384.524010
 20
86.696650
 30
0.0
 10
384.176870
 20
86.810950
 30
0.0
 10
383.770470
 20
86.874450
 30
0.0
 10
383.423340
 20
87.014150
 30
0.0
 10
383.279410
 20
87.306250
 30
0.0
 10
383.482610
 20
87.649150
 30
0.0
 10
384.003310
 20
87.784620
 30
0.0
 10
384.583270
 20
87.589890
 30
0.0
 10
384.583270
 20
87.606790
 30
0.0
 10
384.672170
 20
87.725320
 30
0.0
 10
384.756870
 20
87.606790
 30
0.0
 10
384.756870
 20
87.314690
 30
0.0
 10
384.672170
 20
87.200390
 30
0.0
 10
384.583270
 20
87.297790
 30
0.0
 10
384.413940
 20
87.526390
 30
0.0
 10
384.020240
 20
87.611090
 30
0.0
 10
383.626540
 20
87.517990
 30
0.0
 10
383.469910
 20
87.293620
 30
0.0
 10
383.613840
 20
87.098890
 30
0.0
 10
383.960970
 20
87.001490
 30
0.0
 10
384.367370
 20
86.933790
 30
0.0
 10
384.714510
 20
86.772920
 30
0.0
 10
384.858440
 20
86.451190
 30
0.0
 10
384.621370
 20
86.049020
 30
0.0
 10
384.028710
 20
85.892390
 30
0.0
 10
383.364070
 20
86.120990
 30
0.0
 10
383.364070
 20
86.074390
 30
0.0
 10
383.279370
 20
85.960090
 30
0.0
 10
383.190470
 20
86.074390
 30
0.0
 10
383.190470
 20
86.425760
 30
0.0
 10
383.279370
 20
86.540060
 30
0.0
 10
383.364070
 20
86.446960
 30
0.0
 10
383.364070
 20
86.417360
 30
0.0
 10
383.554570
 20
86.167600
 30
0.0
 10
384.016010
 20
86.066000
 30
0.0
 10
384.481670
 20
86.176060
 30
0.0
 10
384.667940
 20
86.455460
 30
0.0
  0
LWPOLYLINE
  5
110
100
AcDbEntity
  8
Calque_1
 62
7
100
AcDbPolyline
 90
13
 70
1
 10
386.647480
 20
87.725350
 30
0.0
 10
386.647480
 20
86.133620
 30
0.0
 10
387.324820
 20
86.133620
 30
0.0
 10
387.443350
 20
86.048920
 30
0.0
 10
387.324820
 20
85.960020
 30
0.0
 10
385.796580
 20
85.960020
 30
0.0
 10
385.682280
 20
86.048920
 30
0.0
 10
385.796580
 20
86.133620
 30
0.0
 10
386.473920
 20
86.133620
 30
0.0
 10
386.473920
 20
87.551790
 30
0.0
 10
385.974380
 20
87.551790
 30
0.0
 10
385.860080
 20
87.640690
 30
0.0
 10
385.974380
 20
87.725390
 30
0.0
  0
LWPOLYLINE
  5
111
100
AcDbEntity
  8
Calque_1
 62
7
100
AcDbPolyline
 90
4
 70
1
 10
386.639480
 20
88.601650
 30
0.0
 10
386.639480
 20
88.161390
 30
0.0
 10
386.389710
 20
88.161390
 30
0.0
 10
386.389710
 20
88.601650
 30
0.0
  0
LWPOLYLINE
  5
112
100
AcDbEntity
  8
Calque_1
 62
7
100
AcDbPolyline
 90
38
 70
1
 10
389.744630
 20
86.455350
 30
0.0
 10
389.600700
 20
86.696650
 30
0.0
 10
389.253570
 20
86.810950
 30
0.0
 10
388.847170
 20
86.874450
 30
0.0
 10
388.500030
 20
87.014150
 30
0.0
 10
388.356100
 20
87.306250
 30
0.0
 10
388.559300
 20
87.649150
 30
0.0
 10
389.080000
 20
87.784620
 30
0.0
 10
389.659970
 20
87.589890
 30
0.0
 10
389.659970
 20
87.606790
 30
0.0
 10
389.748870
 20
87.725320
 30
0.0
 10
389.833570
 20
87.606790
 30
0.0
 10
389.833570
 20
87.314690
 30
0.0
 10
389.748870
 20
87.200390
 30
0.0
 10
389.659970
 20
87.297790
 30
0.0
 10
389.490630
 20
87.526390
 30
0.0
 10
389.096930
 20
87.611090
 30
0.0
 10
388.703230
 20
87.517990
 30
0.0
 10
388.546600
 20
87.293620
 30
0.0
 10
388.690530
 20
87.098890
 30
0.0
 10
389.037670
 20
87.001490
 30
0.0
 10
389.444070
 20
86.933790
 30
0.0
 10
389.791200
 20
86.772920
 30
0.0
 10
389.935130
 20
86.451190
 30
0.0
 10
389.698070
 20
86.049020
 30
0.0
 10
389.105400
 20
85.892390
 30
0.0
 10
388.440770
 20
86.120990
 30
0.0
 10
388.440770
 20
86.074390
 30
0.0
 10
388.356070
 20
85.960090
 30
0.0
 10
388.267170
 20
86.074390
 30
0.0
 10
388.267170
 20
86.425760
 30
0.0
 10
388.356070
 20
86.540060
 30
0.0
 10
388.440770
 20
86.446960
 30
0.0
 10
388.440770
 20
86.417360
 30
0.0
 10
388.631270
 20
86.167600
 30
0.0
 10
389.092700
 20
86.066000
 30
0.0
 10
389.558370
 20
86.176060
 30
0.0
 10
389.744630
 20
86.455460
 30
0.0
  0
LWPOLYLINE
  5
113
100
AcDbEntity
  8
Calque_1
 62
7
100
AcDbPolyline
 90
22
 70
1
 10
408.215400
 20
86.802490
 30
0.0
 10
406.454330
 20
86.802490
 30
0.0
 10
406.733730
 20
86.264850
 30
0.0
 10
407.309470
 20
86.065890
 30
0.0
 10
407.715860
 20
86.129390
 30
0.0
 10
408.050300
 20
86.294490
 30
0.0
 10
408.118000
 20
86.324090
 30
0.0
 10
408.173000
 20
86.298690
 30
0.0
 10
408.198400
 20
86.239390
 30
0.0
 10
407.893600
 20
86.010790
 30
0.0
 10
407.305170
 20
85.892260
 30
0.0
 10
406.909358
 20
85.964228
 30
0.0
 10
406.577040
 20
86.180130
 30
0.0
 10
406.354793
 20
86.498685
 30
0.0
 10
406.280710
 20
86.878630
 30
0.0
 10
406.350560
 20
87.232110
 30
0.0
 10
406.560110
 20
87.522090
 30
0.0
 10
407.245910
 20
87.784560
 30
0.0
 10
407.634313
 20
87.716828
 30
0.0
 10
407.944400
 20
87.513630
 30
0.0
 10
408.147605
 20
87.202480
 30
0.0
 10
408.215340
 20
86.802430
 30
0.0
  0
LWPOLYLINE
  5
114
100
AcDbEntity
  8
Calque_1
 62
7
100
AcDbPolyline
 90
6
 70
1
 10
406.454330
 20
86.976050
 30
0.0
 10
408.037600
 20
86.976050
 30
0.0
 10
407.770900
 20
87.437490
 30
0.0
 10
407.245970
 20
87.611050
 30
0.0
 10
406.725270
 20
87.437490
 30
0.0
 10
406.454330
 20
86.976050
 30
0.0
  0
LWPOLYLINE
  5
115
100
AcDbEntity
  8
Calque_1
 62
7
100
AcDbPolyline
 90
37
 70
1
 10
409.902840
 20
87.611050
 30
0.0
 10
409.754680
 20
87.594150
 30
0.0
 10
409.623440
 20
87.547550
 30
0.0
 10
409.521840
 20
87.488250
 30
0.0
 10
409.428740
 20
87.412050
 30
0.0
 10
409.361040
 20
87.335850
 30
0.0
 10
409.301740
 20
87.259650
 30
0.0
 10
409.259440
 20
87.204650
 30
0.0
 10
409.259440
 20
86.133620
 30
0.0
 10
409.449940
 20
86.133620
 30
0.0
 10
409.564240
 20
86.048920
 30
0.0
 10
409.449940
 20
85.960020
 30
0.0
 10
408.895370
 20
85.960020
 30
0.0
 10
408.776840
 20
86.048920
 30
0.0
 10
408.895370
 20
86.133620
 30
0.0
 10
409.085870
 20
86.133620
 30
0.0
 10
409.085870
 20
87.551790
 30
0.0
 10
408.941940
 20
87.551790
 30
0.0
 10
408.827640
 20
87.640690
 30
0.0
 10
408.941940
 20
87.725390
 30
0.0
 10
409.259440
 20
87.725390
 30
0.0
 10
409.259440
 20
87.433290
 30
0.0
 10
409.581170
 20
87.708460
 30
0.0
 10
409.919840
 20
87.784660
 30
0.0
 10
410.393970
 20
87.619560
 30
0.0
 10
410.584470
 20
87.208930
 30
0.0
 10
410.584470
 20
86.133660
 30
0.0
 10
410.728400
 20
86.133660
 30
0.0
 10
410.842700
 20
86.048960
 30
0.0
 10
410.728400
 20
85.960060
 30
0.0
 10
410.266970
 20
85.960060
 30
0.0
 10
410.152670
 20
86.048960
 30
0.0
 10
410.266970
 20
86.133660
 30
0.0
 10
410.410900
 20
86.133660
 30
0.0
 10
410.410900
 20
87.179290
 30
0.0
 10
410.271200
 20
87.484090
 30
0.0
 10
409.902900
 20
87.611090
 30
0.0
  0
LWPOLYLINE
  5
116
100
AcDbEntity
  8
Calque_1
 62
7
100
AcDbPolyline
 90
20
 70
1
 10
412.513160
 20
85.960050
 30
0.0
 10
412.216820
 20
85.960050
 30
0.0
 10
411.505620
 20
87.551790
 30
0.0
 10
411.332060
 20
87.551790
 30
0.0
 10
411.217760
 20
87.640690
 30
0.0
 10
411.332060
 20
87.725390
 30
0.0
 10
411.971290
 20
87.725390
 30
0.0
 10
412.089820
 20
87.640690
 30
0.0
 10
411.971290
 20
87.551790
 30
0.0
 10
411.696120
 20
87.551790
 30
0.0
 10
412.331120
 20
86.133620
 30
0.0
 10
412.411520
 20
86.133620
 30
0.0
 10
413.033820
 20
87.551790
 30
0.0
 10
412.745950
 20
87.551790
 30
0.0
 10
412.631650
 20
87.640690
 30
0.0
 10
412.745950
 20
87.725390
 30
0.0
 10
413.389420
 20
87.725390
 30
0.0
 10
413.503720
 20
87.640690
 30
0.0
 10
413.389420
 20
87.551790
 30
0.0
 10
413.215850
 20
87.551790
 30
0.0
  0
LWPOLYLINE
  5
117
100
AcDbEntity
  8
Calque_1
 62
7
100
AcDbPolyline
 90
22
 70
1
 10
415.830440
 20
86.802490
 30
0.0
 10
414.069370
 20
86.802490
 30
0.0
 10
414.348770
 20
86.264850
 30
0.0
 10
414.924500
 20
86.065890
 30
0.0
 10
415.330900
 20
86.129390
 30
0.0
 10
415.665340
 20
86.294490
 30
0.0
 10
415.733040
 20
86.324090
 30
0.0
 10
415.788040
 20
86.298690
 30
0.0
 10
415.813440
 20
86.239390
 30
0.0
 10
415.508640
 20
86.010790
 30
0.0
 10
414.920210
 20
85.892260
 30
0.0
 10
414.524393
 20
85.964228
 30
0.0
 10
414.192080
 20
86.180130
 30
0.0
 10
413.969825
 20
86.498685
 30
0.0
 10
413.895740
 20
86.878630
 30
0.0
 10
413.965590
 20
87.232110
 30
0.0
 10
414.175140
 20
87.522090
 30
0.0
 10
414.860940
 20
87.784560
 30
0.0
 10
415.249350
 20
87.716828
 30
0.0
 10
415.559440
 20
87.513630
 30
0.0
 10
415.762645
 20
87.202480
 30
0.0
 10
415.830380
 20
86.802430
 30
0.0
  0
LWPOLYLINE
  5
118
100
AcDbEntity
  8
Calque_1
 62
7
100
AcDbPolyline
 90
6
 70
1
 10
414.069370
 20
86.976050
 30
0.0
 10
415.652640
 20
86.976050
 30
0.0
 10
415.385940
 20
87.437490
 30
0.0
 10
414.861000
 20
87.611050
 30
0.0
 10
414.340300
 20
87.437490
 30
0.0
 10
414.069370
 20
86.976050
 30
0.0
  0
LWPOLYLINE
  5
119
100
AcDbEntity
  8
Calque_1
 62
7
100
AcDbPolyline
 90
13
 70
1
 10
417.522120
 20
88.516990
 30
0.0
 10
417.522120
 20
86.133620
 30
0.0
 10
418.199450
 20
86.133620
 30
0.0
 10
418.317980
 20
86.048920
 30
0.0
 10
418.199450
 20
85.960020
 30
0.0
 10
416.671220
 20
85.960020
 30
0.0
 10
416.556920
 20
86.048920
 30
0.0
 10
416.671220
 20
86.133620
 30
0.0
 10
417.348550
 20
86.133620
 30
0.0
 10
417.348550
 20
88.343420
 30
0.0
 10
416.853250
 20
88.343420
 30
0.0
 10
416.738950
 20
88.432320
 30
0.0
 10
416.853250
 20
88.517020
 30
0.0
  0
LWPOLYLINE
  5
11a
100
AcDbEntity
  8
Calque_1
 62
7
100
AcDbPolyline
 90
15
 70
1
 10
419.975800
 20
87.784620
 30
0.0
 10
420.350450
 20
87.714770
 30
0.0
 10
420.661600
 20
87.505220
 30
0.0
 10
420.871150
 20
87.198303
 30
0.0
 10
420.941000
 20
86.827890
 30
0.0
 10
420.870090
 20
86.466995
 30
0.0
 10
420.657360
 20
86.163250
 30
0.0
 10
419.975800
 20
85.892320
 30
0.0
 10
419.290000
 20
86.167490
 30
0.0
 10
419.080450
 20
86.473345
 30
0.0
 10
419.010600
 20
86.840590
 30
0.0
 10
419.080450
 20
87.201478
 30
0.0
 10
419.290000
 20
87.505220
 30
0.0
 10
419.603265
 20
87.714770
 30
0.0
 10
419.975800
 20
87.784620
 30
0.0
  0
LWPOLYLINE
  5
11b
100
AcDbEntity
  8
Calque_1
 62
7
100
AcDbPolyline
 90
9
 70
1
 10
419.975800
 20
87.611050
 30
0.0
 10
419.412760
 20
87.386690
 30
0.0
 10
419.184160
 20
86.840590
 30
0.0
 10
419.412760
 20
86.290250
 30
0.0
 10
419.975800
 20
86.065890
 30
0.0
 10
420.534600
 20
86.290250
 30
0.0
 10
420.767430
 20
86.827890
 30
0.0
 10
420.538830
 20
87.386690
 30
0.0
 10
419.975800
 20
87.611050
 30
0.0
  0
LWPOLYLINE
  5
11c
100
AcDbEntity
  8
Calque_1
 62
7
100
AcDbPolyline
 90
22
 70
1
 10
421.853740
 20
87.725350
 30
0.0
 10
421.853740
 20
87.378220
 30
0.0
 10
422.196640
 20
87.691490
 30
0.0
 10
422.611510
 20
87.784590
 30
0.0
 10
423.267680
 20
87.526360
 30
0.0
 10
423.534380
 20
86.895590
 30
0.0
 10
423.267680
 20
86.260590
 30
0.0
 10
422.611510
 20
86.002360
 30
0.0
 10
422.185003
 20
86.103960
 30
0.0
 10
421.853740
 20
86.408760
 30
0.0
 10
421.853740
 20
85.346190
 30
0.0
 10
422.268610
 20
85.346190
 30
0.0
 10
422.382910
 20
85.261490
 30
0.0
 10
422.268610
 20
85.172590
 30
0.0
 10
421.451580
 20
85.172590
 30
0.0
 10
421.337280
 20
85.261490
 30
0.0
 10
421.451580
 20
85.346190
 30
0.0
 10
421.680180
 20
85.346190
 30
0.0
 10
421.680180
 20
87.551760
 30
0.0
 10
421.451580
 20
87.551760
 30
0.0
 10
421.337280
 20
87.640660
 30
0.0
 10
421.451580
 20
87.725360
 30
0.0
  0
LWPOLYLINE
  5
11d
100
AcDbEntity
  8
Calque_1
 62
7
100
AcDbPolyline
 90
9
 70
1
 10
422.607280
 20
87.611050
 30
0.0
 10
422.073880
 20
87.399390
 30
0.0
 10
421.853740
 20
86.895620
 30
0.0
 10
422.073880
 20
86.383390
 30
0.0
 10
422.607280
 20
86.175950
 30
0.0
 10
423.140680
 20
86.383390
 30
0.0
 10
423.360810
 20
86.887150
 30
0.0
 10
423.144910
 20
87.403620
 30
0.0
 10
422.607280
 20
87.611050
 30
0.0
  0
LWPOLYLINE
  5
11e
100
AcDbEntity
  8
Calque_1
 62
7
100
AcDbPolyline
 90
22
 70
1
 10
425.983820
 20
86.802490
 30
0.0
 10
424.222760
 20
86.802490
 30
0.0
 10
424.502160
 20
86.264850
 30
0.0
 10
425.077890
 20
86.065890
 30
0.0
 10
425.484290
 20
86.129390
 30
0.0
 10
425.818720
 20
86.294490
 30
0.0
 10
425.886420
 20
86.324090
 30
0.0
 10
425.941420
 20
86.298690
 30
0.0
 10
425.966820
 20
86.239390
 30
0.0
 10
425.662020
 20
86.010790
 30
0.0
 10
425.073590
 20
85.892260
 30
0.0
 10
424.677770
 20
85.964228
 30
0.0
 10
424.345450
 20
86.180130
 30
0.0
 10
424.123203
 20
86.498685
 30
0.0
 10
424.049120
 20
86.878630
 30
0.0
 10
424.118970
 20
87.232110
 30
0.0
 10
424.328520
 20
87.522090
 30
0.0
 10
425.014320
 20
87.784560
 30
0.0
 10
425.402730
 20
87.716828
 30
0.0
 10
425.712820
 20
87.513630
 30
0.0
 10
425.916018
 20
87.202480
 30
0.0
 10
425.983750
 20
86.802430
 30
0.0
  0
LWPOLYLINE
  5
11f
100
AcDbEntity
  8
Calque_1
 62
7
100
AcDbPolyline
 90
6
 70
1
 10
424.222760
 20
86.976050
 30
0.0
 10
425.806020
 20
86.976050
 30
0.0
 10
425.539320
 20
87.437490
 30
0.0
 10
425.014390
 20
87.611050
 30
0.0
 10
424.493690
 20
87.437490
 30
0.0
 10
424.222760
 20
86.976050
 30
0.0
  0
LWPOLYLINE
  5
120
100
AcDbEntity
  8
Calque_1
 62
7
100
AcDbPolyline
 90
25
 70
1
 10
301.018070
 20
51.560250
 30
0.0
 10
301.305940
 20
51.716890
 30
0.0
 10
301.754670
 20
51.784590
 30
0.0
 10
302.241500
 20
51.636420
 30
0.0
 10
302.436240
 20
51.263890
 30
0.0
 10
302.436240
 20
50.133590
 30
0.0
 10
302.664840
 20
50.133590
 30
0.0
 10
302.779140
 20
50.048890
 30
0.0
 10
302.664840
 20
49.959990
 30
0.0
 10
302.262670
 20
49.959990
 30
0.0
 10
302.262670
 20
50.243630
 30
0.0
 10
301.872143
 20
49.980103
 30
0.0
 10
301.454100
 20
49.892260
 30
0.0
 10
300.975740
 20
50.040430
 30
0.0
 10
300.793700
 20
50.434130
 30
0.0
 10
301.039240
 20
50.878630
 30
0.0
 10
301.686940
 20
51.052190
 30
0.0
 10
302.262670
 20
50.963290
 30
0.0
 10
302.262670
 20
51.263860
 30
0.0
 10
302.118740
 20
51.513630
 30
0.0
 10
301.741970
 20
51.611030
 30
0.0
 10
301.339800
 20
51.543330
 30
0.0
 10
301.098500
 20
51.475630
 30
0.0
 10
301.039200
 20
51.501030
 30
0.0
 10
301.018000
 20
51.560330
 30
0.0
  0
LWPOLYLINE
  5
121
100
AcDbEntity
  8
Calque_1
 62
7
100
AcDbPolyline
 90
9
 70
1
 10
302.262670
 20
50.434190
 30
0.0
 10
302.262670
 20
50.815190
 30
0.0
 10
301.720800
 20
50.878690
 30
0.0
 10
301.174700
 20
50.751690
 30
0.0
 10
300.967270
 20
50.429950
 30
0.0
 10
301.098500
 20
50.163250
 30
0.0
 10
301.449870
 20
50.065850
 30
0.0
 10
301.860500
 20
50.150550
 30
0.0
 10
302.262670
 20
50.434190
 30
0.0
  0
LWPOLYLINE
  5
122
100
AcDbEntity
  8
Calque_1
 62
7
100
AcDbPolyline
 90
25
 70
1
 10
303.814650
 20
51.725350
 30
0.0
 10
304.745980
 20
51.725350
 30
0.0
 10
304.860280
 20
51.640650
 30
0.0
 10
304.745980
 20
51.551750
 30
0.0
 10
303.814650
 20
51.551750
 30
0.0
 10
303.814650
 20
50.421450
 30
0.0
 10
303.941650
 20
50.163210
 30
0.0
 10
304.288780
 20
50.065810
 30
0.0
 10
304.665550
 20
50.112410
 30
0.0
 10
304.991520
 20
50.235180
 30
0.0
 10
305.059220
 20
50.260580
 30
0.0
 10
305.114220
 20
50.235180
 30
0.0
 10
305.139620
 20
50.175880
 30
0.0
 10
304.851760
 20
49.985380
 30
0.0
 10
304.297190
 20
49.892280
 30
0.0
 10
303.818820
 20
50.031980
 30
0.0
 10
303.641020
 20
50.412980
 30
0.0
 10
303.641020
 20
51.551750
 30
0.0
 10
303.327760
 20
51.551750
 30
0.0
 10
303.209220
 20
51.640650
 30
0.0
 10
303.327760
 20
51.725350
 30
0.0
 10
303.641020
 20
51.725350
 30
0.0
 10
303.641020
 20
52.229120
 30
0.0
 10
303.729920
 20
52.343420
 30
0.0
 10
303.814620
 20
52.229120
 30
0.0
  0
LWPOLYLINE
  5
123
100
AcDbEntity
  8
Calque_1
 62
7
100
AcDbPolyline
 90
25
 70
1
 10
306.353000
 20
51.725350
 30
0.0
 10
307.284330
 20
51.725350
 30
0.0
 10
307.398630
 20
51.640650
 30
0.0
 10
307.284330
 20
51.551750
 30
0.0
 10
306.353000
 20
51.551750
 30
0.0
 10
306.353000
 20
50.421450
 30
0.0
 10
306.480000
 20
50.163210
 30
0.0
 10
306.827130
 20
50.065810
 30
0.0
 10
307.203900
 20
50.112410
 30
0.0
 10
307.529860
 20
50.235180
 30
0.0
 10
307.597560
 20
50.260580
 30
0.0
 10
307.652560
 20
50.235180
 30
0.0
 10
307.677960
 20
50.175880
 30
0.0
 10
307.390090
 20
49.985380
 30
0.0
 10
306.835530
 20
49.892280
 30
0.0
 10
306.357160
 20
50.031980
 30
0.0
 10
306.179360
 20
50.412980
 30
0.0
 10
306.179360
 20
51.551750
 30
0.0
 10
305.866090
 20
51.551750
 30
0.0
 10
305.747560
 20
51.640650
 30
0.0
 10
305.866090
 20
51.725350
 30
0.0
 10
306.179360
 20
51.725350
 30
0.0
 10
306.179360
 20
52.229120
 30
0.0
 10
306.268260
 20
52.343420
 30
0.0
 10
306.352960
 20
52.229120
 30
0.0
  0
LWPOLYLINE
  5
124
100
AcDbEntity
  8
Calque_1
 62
7
100
AcDbPolyline
 90
25
 70
1
 10
308.633110
 20
51.560250
 30
0.0
 10
308.920980
 20
51.716890
 30
0.0
 10
309.369710
 20
51.784590
 30
0.0
 10
309.856540
 20
51.636420
 30
0.0
 10
310.051280
 20
51.263890
 30
0.0
 10
310.051280
 20
50.133590
 30
0.0
 10
310.279880
 20
50.133590
 30
0.0
 10
310.394180
 20
50.048890
 30
0.0
 10
310.279880
 20
49.959990
 30
0.0
 10
309.877710
 20
49.959990
 30
0.0
 10
309.877710
 20
50.243630
 30
0.0
 10
309.487183
 20
49.980103
 30
0.0
 10
309.069140
 20
49.892260
 30
0.0
 10
308.590780
 20
50.040430
 30
0.0
 10
308.408740
 20
50.434130
 30
0.0
 10
308.654280
 20
50.878630
 30
0.0
 10
309.301980
 20
51.052190
 30
0.0
 10
309.877710
 20
50.963290
 30
0.0
 10
309.877710
 20
51.263860
 30
0.0
 10
309.733780
 20
51.513630
 30
0.0
 10
309.357010
 20
51.611030
 30
0.0
 10
308.954840
 20
51.543330
 30
0.0
 10
308.713540
 20
51.475630
 30
0.0
 10
308.654240
 20
51.501030
 30
0.0
 10
308.633040
 20
51.560330
 30
0.0
  0
LWPOLYLINE
  5
125
100
AcDbEntity
  8
Calque_1
 62
7
100
AcDbPolyline
 90
9
 70
1
 10
309.877710
 20
50.434190
 30
0.0
 10
309.877710
 20
50.815190
 30
0.0
 10
309.335840
 20
50.878690
 30
0.0
 10
308.789740
 20
50.751690
 30
0.0
 10
308.582310
 20
50.429950
 30
0.0
 10
308.713540
 20
50.163250
 30
0.0
 10
309.064910
 20
50.065850
 30
0.0
 10
309.475540
 20
50.150550
 30
0.0
 10
309.877710
 20
50.434190
 30
0.0
  0
LWPOLYLINE
  5
126
100
AcDbEntity
  8
Calque_1
 62
7
100
AcDbPolyline
 90
30
 70
1
 10
312.907120
 20
50.332590
 30
0.0
 10
312.835120
 20
50.222520
 30
0.0
 10
312.644620
 20
50.078590
 30
0.0
 10
312.339820
 20
49.947350
 30
0.0
 10
311.950350
 20
49.892350
 30
0.0
 10
311.264550
 20
50.154820
 30
0.0
 10
311.064525
 20
50.453265
 30
0.0
 10
310.997850
 20
50.823680
 30
0.0
 10
311.066643
 20
51.205740
 30
0.0
 10
311.273020
 20
51.513720
 30
0.0
 10
311.585225
 20
51.716918
 30
0.0
 10
311.971520
 20
51.784650
 30
0.0
 10
312.631920
 20
51.551820
 30
0.0
 10
312.631920
 20
51.606820
 30
0.0
 10
312.720820
 20
51.725350
 30
0.0
 10
312.805520
 20
51.606820
 30
0.0
 10
312.805520
 20
51.221590
 30
0.0
 10
312.720820
 20
51.107290
 30
0.0
 10
312.631920
 20
51.208890
 30
0.0
 10
312.420250
 20
51.492520
 30
0.0
 10
311.958820
 20
51.611050
 30
0.0
 10
311.387320
 20
51.390920
 30
0.0
 10
311.171420
 20
50.827890
 30
0.0
 10
311.391550
 20
50.277550
 30
0.0
 10
311.958820
 20
50.065890
 30
0.0
 10
312.387443
 20
50.142090
 30
0.0
 10
312.750450
 20
50.370690
 30
0.0
 10
312.826650
 20
50.412990
 30
0.0
 10
312.881650
 20
50.387590
 30
0.0
 10
312.907050
 20
50.332590
 30
0.0
  0
LWPOLYLINE
  5
127
100
AcDbEntity
  8
Calque_1
 62
7
100
AcDbPolyline
 90
30
 70
1
 10
313.963800
 20
50.722050
 30
0.0
 10
313.963800
 20
49.960050
 30
0.0
 10
313.561640
 20
49.960050
 30
0.0
 10
313.447340
 20
50.048950
 30
0.0
 10
313.561640
 20
50.133650
 30
0.0
 10
313.790240
 20
50.133650
 30
0.0
 10
313.790240
 20
52.343450
 30
0.0
 10
313.561640
 20
52.343450
 30
0.0
 10
313.447340
 20
52.432350
 30
0.0
 10
313.561640
 20
52.517050
 30
0.0
 10
313.963800
 20
52.517050
 30
0.0
 10
313.963800
 20
50.929550
 30
0.0
 10
314.696170
 20
51.551850
 30
0.0
 10
314.603070
 20
51.551850
 30
0.0
 10
314.488770
 20
51.640750
 30
0.0
 10
314.603070
 20
51.725450
 30
0.0
 10
315.153400
 20
51.725450
 30
0.0
 10
315.267700
 20
51.640750
 30
0.0
 10
315.153400
 20
51.551850
 30
0.0
 10
314.954430
 20
51.551850
 30
0.0
 10
314.289800
 20
50.997280
 30
0.0
 10
315.166100
 20
50.133680
 30
0.0
 10
315.356600
 20
50.133680
 30
0.0
 10
315.470900
 20
50.048980
 30
0.0
 10
315.356600
 20
49.960080
 30
0.0
 10
314.802000
 20
49.960080
 30
0.0
 10
314.687700
 20
50.048980
 30
0.0
 10
314.802000
 20
50.133680
 30
0.0
 10
314.920540
 20
50.133680
 30
0.0
 10
314.158540
 20
50.887210
 30
0.0
  0
LWPOLYLINE
  5
128
100
AcDbEntity
  8
Calque_1
 62
7
100
AcDbPolyline
 90
19
 70
1
 10
339.885320
 20
52.516990
 30
0.0
 10
339.885320
 20
50.133620
 30
0.0
 10
340.113920
 20
50.133620
 30
0.0
 10
340.228220
 20
50.048920
 30
0.0
 10
340.113920
 20
49.960020
 30
0.0
 10
339.711750
 20
49.960020
 30
0.0
 10
339.711750
 20
50.336790
 30
0.0
 10
339.368848
 20
50.003415
 30
0.0
 10
338.941280
 20
49.892290
 30
0.0
 10
338.293580
 20
50.171690
 30
0.0
 10
338.026880
 20
50.840560
 30
0.0
 10
338.293580
 20
51.505190
 30
0.0
 10
338.941280
 20
51.784590
 30
0.0
 10
339.366733
 20
51.674523
 30
0.0
 10
339.711750
 20
51.344320
 30
0.0
 10
339.711750
 20
52.343390
 30
0.0
 10
339.483150
 20
52.343390
 30
0.0
 10
339.368850
 20
52.432290
 30
0.0
 10
339.483150
 20
52.516990
 30
0.0
  0
LWPOLYLINE
  5
129
100
AcDbEntity
  8
Calque_1
 62
7
100
AcDbPolyline
 90
9
 70
1
 10
338.953980
 20
51.611050
 30
0.0
 10
338.420580
 20
51.386690
 30
0.0
 10
338.200450
 20
50.840590
 30
0.0
 10
338.420580
 20
50.290250
 30
0.0
 10
338.958220
 20
50.065890
 30
0.0
 10
339.491620
 20
50.290250
 30
0.0
 10
339.711750
 20
50.832120
 30
0.0
 10
339.491620
 20
51.386690
 30
0.0
 10
338.953980
 20
51.611050
 30
0.0
  0
LWPOLYLINE
  5
12a
100
AcDbEntity
  8
Calque_1
 62
7
100
AcDbPolyline
 90
22
 70
1
 10
342.499860
 20
50.802490
 30
0.0
 10
340.738800
 20
50.802490
 30
0.0
 10
341.018200
 20
50.264850
 30
0.0
 10
341.593930
 20
50.065890
 30
0.0
 10
342.000330
 20
50.129390
 30
0.0
 10
342.334760
 20
50.294490
 30
0.0
 10
342.402460
 20
50.324090
 30
0.0
 10
342.457460
 20
50.298690
 30
0.0
 10
342.482860
 20
50.239390
 30
0.0
 10
342.178060
 20
50.010790
 30
0.0
 10
341.589630
 20
49.892260
 30
0.0
 10
341.193810
 20
49.964228
 30
0.0
 10
340.861490
 20
50.180130
 30
0.0
 10
340.639243
 20
50.498685
 30
0.0
 10
340.565160
 20
50.878630
 30
0.0
 10
340.635010
 20
51.232110
 30
0.0
 10
340.844560
 20
51.522090
 30
0.0
 10
341.530360
 20
51.784560
 30
0.0
 10
341.918770
 20
51.716828
 30
0.0
 10
342.228860
 20
51.513630
 30
0.0
 10
342.432058
 20
51.202480
 30
0.0
 10
342.499790
 20
50.802430
 30
0.0
  0
LWPOLYLINE
  5
12b
100
AcDbEntity
  8
Calque_1
 62
7
100
AcDbPolyline
 90
6
 70
1
 10
340.738800
 20
50.976050
 30
0.0
 10
342.322060
 20
50.976050
 30
0.0
 10
342.055360
 20
51.437490
 30
0.0
 10
341.530430
 20
51.611050
 30
0.0
 10
341.009730
 20
51.437490
 30
0.0
 10
340.738800
 20
50.976050
 30
0.0
  0
LWPOLYLINE
  5
12c
100
AcDbEntity
  8
Calque_1
 62
7
100
AcDbPolyline
 90
30
 70
1
 10
345.101710
 20
50.332590
 30
0.0
 10
345.029710
 20
50.222520
 30
0.0
 10
344.839210
 20
50.078590
 30
0.0
 10
344.534410
 20
49.947350
 30
0.0
 10
344.144950
 20
49.892350
 30
0.0
 10
343.459150
 20
50.154820
 30
0.0
 10
343.259125
 20
50.453265
 30
0.0
 10
343.192450
 20
50.823680
 30
0.0
 10
343.261240
 20
51.205740
 30
0.0
 10
343.467610
 20
51.513720
 30
0.0
 10
343.779820
 20
51.716918
 30
0.0
 10
344.166110
 20
51.784650
 30
0.0
 10
344.826510
 20
51.551820
 30
0.0
 10
344.826510
 20
51.606820
 30
0.0
 10
344.915410
 20
51.725350
 30
0.0
 10
345.000110
 20
51.606820
 30
0.0
 10
345.000110
 20
51.221590
 30
0.0
 10
344.915410
 20
51.107290
 30
0.0
 10
344.826510
 20
51.208890
 30
0.0
 10
344.614850
 20
51.492520
 30
0.0
 10
344.153410
 20
51.611050
 30
0.0
 10
343.581910
 20
51.390920
 30
0.0
 10
343.366010
 20
50.827890
 30
0.0
 10
343.586150
 20
50.277550
 30
0.0
 10
344.153410
 20
50.065890
 30
0.0
 10
344.582040
 20
50.142090
 30
0.0
 10
344.945050
 20
50.370690
 30
0.0
 10
345.021250
 20
50.412990
 30
0.0
 10
345.076250
 20
50.387590
 30
0.0
 10
345.101650
 20
50.332590
 30
0.0
  0
LWPOLYLINE
  5
12d
100
AcDbEntity
  8
Calque_1
 62
7
100
AcDbPolyline
 90
25
 70
1
 10
345.904390
 20
51.560250
 30
0.0
 10
346.192260
 20
51.716890
 30
0.0
 10
346.640990
 20
51.784590
 30
0.0
 10
347.127820
 20
51.636420
 30
0.0
 10
347.322560
 20
51.263890
 30
0.0
 10
347.322560
 20
50.133590
 30
0.0
 10
347.551160
 20
50.133590
 30
0.0
 10
347.665460
 20
50.048890
 30
0.0
 10
347.551160
 20
49.959990
 30
0.0
 10
347.148990
 20
49.959990
 30
0.0
 10
347.148990
 20
50.243630
 30
0.0
 10
346.758463
 20
49.980103
 30
0.0
 10
346.340420
 20
49.892260
 30
0.0
 10
345.862060
 20
50.040430
 30
0.0
 10
345.680020
 20
50.434130
 30
0.0
 10
345.925560
 20
50.878630
 30
0.0
 10
346.573260
 20
51.052190
 30
0.0
 10
347.148990
 20
50.963290
 30
0.0
 10
347.148990
 20
51.263860
 30
0.0
 10
347.005060
 20
51.513630
 30
0.0
 10
346.628290
 20
51.611030
 30
0.0
 10
346.226120
 20
51.543330
 30
0.0
 10
345.984820
 20
51.475630
 30
0.0
 10
345.925520
 20
51.501030
 30
0.0
 10
345.904320
 20
51.560330
 30
0.0
  0
LWPOLYLINE
  5
12e
100
AcDbEntity
  8
Calque_1
 62
7
100
AcDbPolyline
 90
9
 70
1
 10
347.148990
 20
50.434190
 30
0.0
 10
347.148990
 20
50.815190
 30
0.0
 10
346.607120
 20
50.878690
 30
0.0
 10
346.061020
 20
50.751690
 30
0.0
 10
345.853590
 20
50.429950
 30
0.0
 10
345.984820
 20
50.163250
 30
0.0
 10
346.336190
 20
50.065850
 30
0.0
 10
346.746820
 20
50.150550
 30
0.0
 10
347.148990
 20
50.434190
 30
0.0
  0
LWPOLYLINE
  5
12f
100
AcDbEntity
  8
Calque_1
 62
7
100
AcDbPolyline
 90
26
 70
1
 10
349.107370
 20
49.960050
 30
0.0
 10
348.311500
 20
51.551790
 30
0.0
 10
348.243800
 20
51.551790
 30
0.0
 10
348.129500
 20
51.640690
 30
0.0
 10
348.243800
 20
51.725390
 30
0.0
 10
348.730630
 20
51.725390
 30
0.0
 10
348.844930
 20
51.640690
 30
0.0
 10
348.730630
 20
51.551790
 30
0.0
 10
348.510500
 20
51.551790
 30
0.0
 10
349.204760
 20
50.150550
 30
0.0
 10
349.886330
 20
51.551790
 30
0.0
 10
349.657730
 20
51.551790
 30
0.0
 10
349.543430
 20
51.640690
 30
0.0
 10
349.657730
 20
51.725390
 30
0.0
 10
350.123400
 20
51.725390
 30
0.0
 10
350.237700
 20
51.640690
 30
0.0
 10
350.123400
 20
51.551790
 30
0.0
 10
350.064100
 20
51.551790
 30
0.0
 10
348.980370
 20
49.346220
 30
0.0
 10
349.255530
 20
49.346220
 30
0.0
 10
349.369830
 20
49.261520
 30
0.0
 10
349.255530
 20
49.172620
 30
0.0
 10
348.269170
 20
49.172620
 30
0.0
 10
348.154870
 20
49.261520
 30
0.0
 10
348.269170
 20
49.346220
 30
0.0
 10
348.806800
 20
49.346220
 30
0.0
  0
LWPOLYLINE
  5
130
100
AcDbEntity
  8
Calque_1
 62
7
100
AcDbPolyline
 90
38
 70
1
 10
373.067580
 20
50.455350
 30
0.0
 10
372.923650
 20
50.696650
 30
0.0
 10
372.576520
 20
50.810950
 30
0.0
 10
372.170120
 20
50.874450
 30
0.0
 10
371.822980
 20
51.014150
 30
0.0
 10
371.679050
 20
51.306250
 30
0.0
 10
371.882250
 20
51.649150
 30
0.0
 10
372.402950
 20
51.784620
 30
0.0
 10
372.982920
 20
51.589890
 30
0.0
 10
372.982920
 20
51.606790
 30
0.0
 10
373.071820
 20
51.725320
 30
0.0
 10
373.156520
 20
51.606790
 30
0.0
 10
373.156520
 20
51.314690
 30
0.0
 10
373.071820
 20
51.200390
 30
0.0
 10
372.982920
 20
51.297790
 30
0.0
 10
372.813580
 20
51.526390
 30
0.0
 10
372.419880
 20
51.611090
 30
0.0
 10
372.026180
 20
51.517990
 30
0.0
 10
371.869550
 20
51.293620
 30
0.0
 10
372.013480
 20
51.098890
 30
0.0
 10
372.360620
 20
51.001490
 30
0.0
 10
372.767020
 20
50.933790
 30
0.0
 10
373.114150
 20
50.772920
 30
0.0
 10
373.258080
 20
50.451190
 30
0.0
 10
373.021020
 20
50.049020
 30
0.0
 10
372.428350
 20
49.892390
 30
0.0
 10
371.763720
 20
50.120990
 30
0.0
 10
371.763720
 20
50.074390
 30
0.0
 10
371.679020
 20
49.960090
 30
0.0
 10
371.590120
 20
50.074390
 30
0.0
 10
371.590120
 20
50.425760
 30
0.0
 10
371.679020
 20
50.540060
 30
0.0
 10
371.763720
 20
50.446960
 30
0.0
 10
371.763720
 20
50.417360
 30
0.0
 10
371.954220
 20
50.167600
 30
0.0
 10
372.415650
 20
50.066000
 30
0.0
 10
372.881320
 20
50.176060
 30
0.0
 10
373.067580
 20
50.455460
 30
0.0
  0
LWPOLYLINE
  5
131
100
AcDbEntity
  8
Calque_1
 62
7
100
AcDbPolyline
 90
25
 70
1
 10
375.550900
 20
49.960050
 30
0.0
 10
375.550900
 20
50.239450
 30
0.0
 10
375.180483
 20
49.979103
 30
0.0
 10
374.780430
 20
49.892320
 30
0.0
 10
374.369800
 20
50.044720
 30
0.0
 10
374.217400
 20
50.446890
 30
0.0
 10
374.217400
 20
51.551790
 30
0.0
 10
373.988800
 20
51.551790
 30
0.0
 10
373.874500
 20
51.640690
 30
0.0
 10
373.988800
 20
51.725390
 30
0.0
 10
374.390960
 20
51.725390
 30
0.0
 10
374.390960
 20
50.446930
 30
0.0
 10
374.501030
 20
50.175990
 30
0.0
 10
374.776200
 20
50.065930
 30
0.0
 10
375.181540
 20
50.161180
 30
0.0
 10
375.550900
 20
50.446930
 30
0.0
 10
375.550900
 20
51.551830
 30
0.0
 10
375.237630
 20
51.551830
 30
0.0
 10
375.119100
 20
51.640730
 30
0.0
 10
375.237630
 20
51.725430
 30
0.0
 10
375.724460
 20
51.725430
 30
0.0
 10
375.724460
 20
50.133700
 30
0.0
 10
375.868400
 20
50.133700
 30
0.0
 10
375.982700
 20
50.049000
 30
0.0
 10
375.868400
 20
49.960100
 30
0.0
  0
LWPOLYLINE
  5
132
100
AcDbEntity
  8
Calque_1
 62
7
100
AcDbPolyline
 90
38
 70
1
 10
378.144280
 20
50.455350
 30
0.0
 10
378.000340
 20
50.696650
 30
0.0
 10
377.653210
 20
50.810950
 30
0.0
 10
377.246810
 20
50.874450
 30
0.0
 10
376.899680
 20
51.014150
 30
0.0
 10
376.755740
 20
51.306250
 30
0.0
 10
376.958940
 20
51.649150
 30
0.0
 10
377.479640
 20
51.784620
 30
0.0
 10
378.059610
 20
51.589890
 30
0.0
 10
378.059610
 20
51.606790
 30
0.0
 10
378.148510
 20
51.725320
 30
0.0
 10
378.233210
 20
51.606790
 30
0.0
 10
378.233210
 20
51.314690
 30
0.0
 10
378.148510
 20
51.200390
 30
0.0
 10
378.059610
 20
51.297790
 30
0.0
 10
377.890280
 20
51.526390
 30
0.0
 10
377.496580
 20
51.611090
 30
0.0
 10
377.102880
 20
51.517990
 30
0.0
 10
376.946240
 20
51.293620
 30
0.0
 10
377.090180
 20
51.098890
 30
0.0
 10
377.437310
 20
51.001490
 30
0.0
 10
377.843710
 20
50.933790
 30
0.0
 10
378.190840
 20
50.772920
 30
0.0
 10
378.334780
 20
50.451190
 30
0.0
 10
378.097710
 20
50.049020
 30
0.0
 10
377.505040
 20
49.892390
 30
0.0
 10
376.840410
 20
50.120990
 30
0.0
 10
376.840410
 20
50.074390
 30
0.0
 10
376.755710
 20
49.960090
 30
0.0
 10
376.666810
 20
50.074390
 30
0.0
 10
376.666810
 20
50.425760
 30
0.0
 10
376.755710
 20
50.540060
 30
0.0
 10
376.840410
 20
50.446960
 30
0.0
 10
376.840410
 20
50.417360
 30
0.0
 10
377.030910
 20
50.167600
 30
0.0
 10
377.492340
 20
50.066000
 30
0.0
 10
377.958010
 20
50.176060
 30
0.0
 10
378.144280
 20
50.455460
 30
0.0
  0
LWPOLYLINE
  5
133
100
AcDbEntity
  8
Calque_1
 62
7
100
AcDbPolyline
 90
25
 70
1
 10
379.556560
 20
51.725350
 30
0.0
 10
380.487890
 20
51.725350
 30
0.0
 10
380.602190
 20
51.640650
 30
0.0
 10
380.487890
 20
51.551750
 30
0.0
 10
379.556560
 20
51.551750
 30
0.0
 10
379.556560
 20
50.421450
 30
0.0
 10
379.683560
 20
50.163210
 30
0.0
 10
380.030690
 20
50.065810
 30
0.0
 10
380.407460
 20
50.112410
 30
0.0
 10
380.733420
 20
50.235180
 30
0.0
 10
380.801120
 20
50.260580
 30
0.0
 10
380.856120
 20
50.235180
 30
0.0
 10
380.881520
 20
50.175880
 30
0.0
 10
380.593650
 20
49.985380
 30
0.0
 10
380.039090
 20
49.892280
 30
0.0
 10
379.560720
 20
50.031980
 30
0.0
 10
379.382920
 20
50.412980
 30
0.0
 10
379.382920
 20
51.551750
 30
0.0
 10
379.069650
 20
51.551750
 30
0.0
 10
378.951120
 20
51.640650
 30
0.0
 10
379.069650
 20
51.725350
 30
0.0
 10
379.382920
 20
51.725350
 30
0.0
 10
379.382920
 20
52.229120
 30
0.0
 10
379.471820
 20
52.343420
 30
0.0
 10
379.556520
 20
52.229120
 30
0.0
  0
LWPOLYLINE
  5
134
100
AcDbEntity
  8
Calque_1
 62
7
100
AcDbPolyline
 90
25
 70
1
 10
381.836670
 20
51.560250
 30
0.0
 10
382.124540
 20
51.716890
 30
0.0
 10
382.573270
 20
51.784590
 30
0.0
 10
383.060100
 20
51.636420
 30
0.0
 10
383.254840
 20
51.263890
 30
0.0
 10
383.254840
 20
50.133590
 30
0.0
 10
383.483440
 20
50.133590
 30
0.0
 10
383.597740
 20
50.048890
 30
0.0
 10
383.483440
 20
49.959990
 30
0.0
 10
383.081270
 20
49.959990
 30
0.0
 10
383.081270
 20
50.243630
 30
0.0
 10
382.690743
 20
49.980103
 30
0.0
 10
382.272700
 20
49.892260
 30
0.0
 10
381.794340
 20
50.040430
 30
0.0
 10
381.612300
 20
50.434130
 30
0.0
 10
381.857840
 20
50.878630
 30
0.0
 10
382.505540
 20
51.052190
 30
0.0
 10
383.081270
 20
50.963290
 30
0.0
 10
383.081270
 20
51.263860
 30
0.0
 10
382.937340
 20
51.513630
 30
0.0
 10
382.560570
 20
51.611030
 30
0.0
 10
382.158400
 20
51.543330
 30
0.0
 10
381.917100
 20
51.475630
 30
0.0
 10
381.857800
 20
51.501030
 30
0.0
 10
381.836600
 20
51.560330
 30
0.0
  0
LWPOLYLINE
  5
135
100
AcDbEntity
  8
Calque_1
 62
7
100
AcDbPolyline
 90
9
 70
1
 10
383.081270
 20
50.434190
 30
0.0
 10
383.081270
 20
50.815190
 30
0.0
 10
382.539400
 20
50.878690
 30
0.0
 10
381.993300
 20
50.751690
 30
0.0
 10
381.785870
 20
50.429950
 30
0.0
 10
381.917100
 20
50.163250
 30
0.0
 10
382.268470
 20
50.065850
 30
0.0
 10
382.679100
 20
50.150550
 30
0.0
 10
383.081270
 20
50.434190
 30
0.0
  0
LWPOLYLINE
  5
136
100
AcDbEntity
  8
Calque_1
 62
7
100
AcDbPolyline
 90
13
 70
1
 10
385.200520
 20
51.725350
 30
0.0
 10
385.200520
 20
50.133620
 30
0.0
 10
385.877850
 20
50.133620
 30
0.0
 10
385.996380
 20
50.048920
 30
0.0
 10
385.877850
 20
49.960020
 30
0.0
 10
384.349620
 20
49.960020
 30
0.0
 10
384.235320
 20
50.048920
 30
0.0
 10
384.349620
 20
50.133620
 30
0.0
 10
385.026950
 20
50.133620
 30
0.0
 10
385.026950
 20
51.551790
 30
0.0
 10
384.527420
 20
51.551790
 30
0.0
 10
384.413120
 20
51.640690
 30
0.0
 10
384.527420
 20
51.725390
 30
0.0
  0
LWPOLYLINE
  5
137
100
AcDbEntity
  8
Calque_1
 62
7
100
AcDbPolyline
 90
4
 70
1
 10
385.192520
 20
52.601650
 30
0.0
 10
385.192520
 20
52.161390
 30
0.0
 10
384.942750
 20
52.161390
 30
0.0
 10
384.942750
 20
52.601650
 30
0.0
  0
LWPOLYLINE
  5
138
100
AcDbEntity
  8
Calque_1
 62
7
100
AcDbPolyline
 90
37
 70
1
 10
387.734630
 20
51.611050
 30
0.0
 10
387.586460
 20
51.594150
 30
0.0
 10
387.455230
 20
51.547550
 30
0.0
 10
387.353630
 20
51.488250
 30
0.0
 10
387.260530
 20
51.412050
 30
0.0
 10
387.192830
 20
51.335850
 30
0.0
 10
387.133530
 20
51.259650
 30
0.0
 10
387.091230
 20
51.204650
 30
0.0
 10
387.091230
 20
50.133620
 30
0.0
 10
387.281730
 20
50.133620
 30
0.0
 10
387.396030
 20
50.048920
 30
0.0
 10
387.281730
 20
49.960020
 30
0.0
 10
386.727170
 20
49.960020
 30
0.0
 10
386.608630
 20
50.048920
 30
0.0
 10
386.727170
 20
50.133620
 30
0.0
 10
386.917670
 20
50.133620
 30
0.0
 10
386.917670
 20
51.551790
 30
0.0
 10
386.773730
 20
51.551790
 30
0.0
 10
386.659430
 20
51.640690
 30
0.0
 10
386.773730
 20
51.725390
 30
0.0
 10
387.091230
 20
51.725390
 30
0.0
 10
387.091230
 20
51.433290
 30
0.0
 10
387.412970
 20
51.708460
 30
0.0
 10
387.751630
 20
51.784660
 30
0.0
 10
388.225770
 20
51.619560
 30
0.0
 10
388.416270
 20
51.208930
 30
0.0
 10
388.416270
 20
50.133660
 30
0.0
 10
388.560200
 20
50.133660
 30
0.0
 10
388.674500
 20
50.048960
 30
0.0
 10
388.560200
 20
49.960060
 30
0.0
 10
388.098770
 20
49.960060
 30
0.0
 10
387.984470
 20
50.048960
 30
0.0
 10
388.098770
 20
50.133660
 30
0.0
 10
388.242700
 20
50.133660
 30
0.0
 10
388.242700
 20
51.179290
 30
0.0
 10
388.103000
 20
51.484090
 30
0.0
 10
387.734700
 20
51.611090
 30
0.0
  0
LWPOLYLINE
  5
139
100
AcDbEntity
  8
Calque_1
 62
7
100
AcDbPolyline
 90
25
 70
1
 10
301.018070
 20
15.560250
 30
0.0
 10
301.305940
 20
15.716890
 30
0.0
 10
301.754670
 20
15.784590
 30
0.0
 10
302.241500
 20
15.636420
 30
0.0
 10
302.436240
 20
15.263890
 30
0.0
 10
302.436240
 20
14.133590
 30
0.0
 10
302.664840
 20
14.133590
 30
0.0
 10
302.779140
 20
14.048890
 30
0.0
 10
302.664840
 20
13.959990
 30
0.0
 10
302.262670
 20
13.959990
 30
0.0
 10
302.262670
 20
14.243630
 30
0.0
 10
301.872143
 20
13.980103
 30
0.0
 10
301.454100
 20
13.892260
 30
0.0
 10
300.975740
 20
14.040430
 30
0.0
 10
300.793700
 20
14.434130
 30
0.0
 10
301.039240
 20
14.878630
 30
0.0
 10
301.686940
 20
15.052190
 30
0.0
 10
302.262670
 20
14.963290
 30
0.0
 10
302.262670
 20
15.263860
 30
0.0
 10
302.118740
 20
15.513630
 30
0.0
 10
301.741970
 20
15.611030
 30
0.0
 10
301.339800
 20
15.543330
 30
0.0
 10
301.098500
 20
15.475630
 30
0.0
 10
301.039200
 20
15.501030
 30
0.0
 10
301.018000
 20
15.560330
 30
0.0
  0
LWPOLYLINE
  5
13a
100
AcDbEntity
  8
Calque_1
 62
7
100
AcDbPolyline
 90
9
 70
1
 10
302.262670
 20
14.434190
 30
0.0
 10
302.262670
 20
14.815190
 30
0.0
 10
301.720800
 20
14.878690
 30
0.0
 10
301.174700
 20
14.751690
 30
0.0
 10
300.967270
 20
14.429950
 30
0.0
 10
301.098500
 20
14.163250
 30
0.0
 10
301.449870
 20
14.065850
 30
0.0
 10
301.860500
 20
14.150550
 30
0.0
 10
302.262670
 20
14.434190
 30
0.0
  0
LWPOLYLINE
  5
13b
100
AcDbEntity
  8
Calque_1
 62
7
100
AcDbPolyline
 90
25
 70
1
 10
303.814650
 20
15.725350
 30
0.0
 10
304.745980
 20
15.725350
 30
0.0
 10
304.860280
 20
15.640650
 30
0.0
 10
304.745980
 20
15.551750
 30
0.0
 10
303.814650
 20
15.551750
 30
0.0
 10
303.814650
 20
14.421450
 30
0.0
 10
303.941650
 20
14.163210
 30
0.0
 10
304.288780
 20
14.065810
 30
0.0
 10
304.665550
 20
14.112410
 30
0.0
 10
304.991520
 20
14.235180
 30
0.0
 10
305.059220
 20
14.260580
 30
0.0
 10
305.114220
 20
14.235180
 30
0.0
 10
305.139620
 20
14.175880
 30
0.0
 10
304.851760
 20
13.985380
 30
0.0
 10
304.297190
 20
13.892280
 30
0.0
 10
303.818820
 20
14.031980
 30
0.0
 10
303.641020
 20
14.412980
 30
0.0
 10
303.641020
 20
15.551750
 30
0.0
 10
303.327760
 20
15.551750
 30
0.0
 10
303.209220
 20
15.640650
 30
0.0
 10
303.327760
 20
15.725350
 30
0.0
 10
303.641020
 20
15.725350
 30
0.0
 10
303.641020
 20
16.229120
 30
0.0
 10
303.729920
 20
16.343420
 30
0.0
 10
303.814620
 20
16.229120
 30
0.0
  0
LWPOLYLINE
  5
13c
100
AcDbEntity
  8
Calque_1
 62
7
100
AcDbPolyline
 90
25
 70
1
 10
306.353000
 20
15.725350
 30
0.0
 10
307.284330
 20
15.725350
 30
0.0
 10
307.398630
 20
15.640650
 30
0.0
 10
307.284330
 20
15.551750
 30
0.0
 10
306.353000
 20
15.551750
 30
0.0
 10
306.353000
 20
14.421450
 30
0.0
 10
306.480000
 20
14.163210
 30
0.0
 10
306.827130
 20
14.065810
 30
0.0
 10
307.203900
 20
14.112410
 30
0.0
 10
307.529860
 20
14.235180
 30
0.0
 10
307.597560
 20
14.260580
 30
0.0
 10
307.652560
 20
14.235180
 30
0.0
 10
307.677960
 20
14.175880
 30
0.0
 10
307.390090
 20
13.985380
 30
0.0
 10
306.835530
 20
13.892280
 30
0.0
 10
306.357160
 20
14.031980
 30
0.0
 10
306.179360
 20
14.412980
 30
0.0
 10
306.179360
 20
15.551750
 30
0.0
 10
305.866090
 20
15.551750
 30
0.0
 10
305.747560
 20
15.640650
 30
0.0
 10
305.866090
 20
15.725350
 30
0.0
 10
306.179360
 20
15.725350
 30
0.0
 10
306.179360
 20
16.229120
 30
0.0
 10
306.268260
 20
16.343420
 30
0.0
 10
306.352960
 20
16.229120
 30
0.0
  0
LWPOLYLINE
  5
13d
100
AcDbEntity
  8
Calque_1
 62
7
100
AcDbPolyline
 90
25
 70
1
 10
308.633110
 20
15.560250
 30
0.0
 10
308.920980
 20
15.716890
 30
0.0
 10
309.369710
 20
15.784590
 30
0.0
 10
309.856540
 20
15.636420
 30
0.0
 10
310.051280
 20
15.263890
 30
0.0
 10
310.051280
 20
14.133590
 30
0.0
 10
310.279880
 20
14.133590
 30
0.0
 10
310.394180
 20
14.048890
 30
0.0
 10
310.279880
 20
13.959990
 30
0.0
 10
309.877710
 20
13.959990
 30
0.0
 10
309.877710
 20
14.243630
 30
0.0
 10
309.487183
 20
13.980103
 30
0.0
 10
309.069140
 20
13.892260
 30
0.0
 10
308.590780
 20
14.040430
 30
0.0
 10
308.408740
 20
14.434130
 30
0.0
 10
308.654280
 20
14.878630
 30
0.0
 10
309.301980
 20
15.052190
 30
0.0
 10
309.877710
 20
14.963290
 30
0.0
 10
309.877710
 20
15.263860
 30
0.0
 10
309.733780
 20
15.513630
 30
0.0
 10
309.357010
 20
15.611030
 30
0.0
 10
308.954840
 20
15.543330
 30
0.0
 10
308.713540
 20
15.475630
 30
0.0
 10
308.654240
 20
15.501030
 30
0.0
 10
308.633040
 20
15.560330
 30
0.0
  0
LWPOLYLINE
  5
13e
100
AcDbEntity
  8
Calque_1
 62
7
100
AcDbPolyline
 90
9
 70
1
 10
309.877710
 20
14.434190
 30
0.0
 10
309.877710
 20
14.815190
 30
0.0
 10
309.335840
 20
14.878690
 30
0.0
 10
308.789740
 20
14.751690
 30
0.0
 10
308.582310
 20
14.429950
 30
0.0
 10
308.713540
 20
14.163250
 30
0.0
 10
309.064910
 20
14.065850
 30
0.0
 10
309.475540
 20
14.150550
 30
0.0
 10
309.877710
 20
14.434190
 30
0.0
  0
LWPOLYLINE
  5
13f
100
AcDbEntity
  8
Calque_1
 62
7
100
AcDbPolyline
 90
30
 70
1
 10
312.907120
 20
14.332590
 30
0.0
 10
312.835120
 20
14.222520
 30
0.0
 10
312.644620
 20
14.078590
 30
0.0
 10
312.339820
 20
13.947350
 30
0.0
 10
311.950350
 20
13.892350
 30
0.0
 10
311.264550
 20
14.154820
 30
0.0
 10
311.064525
 20
14.453265
 30
0.0
 10
310.997850
 20
14.823680
 30
0.0
 10
311.066643
 20
15.205740
 30
0.0
 10
311.273020
 20
15.513720
 30
0.0
 10
311.585225
 20
15.716918
 30
0.0
 10
311.971520
 20
15.784650
 30
0.0
 10
312.631920
 20
15.551820
 30
0.0
 10
312.631920
 20
15.606820
 30
0.0
 10
312.720820
 20
15.725350
 30
0.0
 10
312.805520
 20
15.606820
 30
0.0
 10
312.805520
 20
15.221590
 30
0.0
 10
312.720820
 20
15.107290
 30
0.0
 10
312.631920
 20
15.208890
 30
0.0
 10
312.420250
 20
15.492520
 30
0.0
 10
311.958820
 20
15.611050
 30
0.0
 10
311.387320
 20
15.390920
 30
0.0
 10
311.171420
 20
14.827890
 30
0.0
 10
311.391550
 20
14.277550
 30
0.0
 10
311.958820
 20
14.065890
 30
0.0
 10
312.387443
 20
14.142090
 30
0.0
 10
312.750450
 20
14.370690
 30
0.0
 10
312.826650
 20
14.412990
 30
0.0
 10
312.881650
 20
14.387590
 30
0.0
 10
312.907050
 20
14.332590
 30
0.0
  0
LWPOLYLINE
  5
140
100
AcDbEntity
  8
Calque_1
 62
7
100
AcDbPolyline
 90
30
 70
1
 10
313.963800
 20
14.722050
 30
0.0
 10
313.963800
 20
13.960050
 30
0.0
 10
313.561640
 20
13.960050
 30
0.0
 10
313.447340
 20
14.048950
 30
0.0
 10
313.561640
 20
14.133650
 30
0.0
 10
313.790240
 20
14.133650
 30
0.0
 10
313.790240
 20
16.343450
 30
0.0
 10
313.561640
 20
16.343450
 30
0.0
 10
313.447340
 20
16.432350
 30
0.0
 10
313.561640
 20
16.517050
 30
0.0
 10
313.963800
 20
16.517050
 30
0.0
 10
313.963800
 20
14.929550
 30
0.0
 10
314.696170
 20
15.551850
 30
0.0
 10
314.603070
 20
15.551850
 30
0.0
 10
314.488770
 20
15.640750
 30
0.0
 10
314.603070
 20
15.725450
 30
0.0
 10
315.153400
 20
15.725450
 30
0.0
 10
315.267700
 20
15.640750
 30
0.0
 10
315.153400
 20
15.551850
 30
0.0
 10
314.954430
 20
15.551850
 30
0.0
 10
314.289800
 20
14.997280
 30
0.0
 10
315.166100
 20
14.133680
 30
0.0
 10
315.356600
 20
14.133680
 30
0.0
 10
315.470900
 20
14.048980
 30
0.0
 10
315.356600
 20
13.960080
 30
0.0
 10
314.802000
 20
13.960080
 30
0.0
 10
314.687700
 20
14.048980
 30
0.0
 10
314.802000
 20
14.133680
 30
0.0
 10
314.920540
 20
14.133680
 30
0.0
 10
314.158540
 20
14.887210
 30
0.0
  0
LWPOLYLINE
  5
141
100
AcDbEntity
  8
Calque_1
 62
7
100
AcDbPolyline
 90
19
 70
1
 10
339.885320
 20
16.516990
 30
0.0
 10
339.885320
 20
14.133620
 30
0.0
 10
340.113920
 20
14.133620
 30
0.0
 10
340.228220
 20
14.048920
 30
0.0
 10
340.113920
 20
13.960020
 30
0.0
 10
339.711750
 20
13.960020
 30
0.0
 10
339.711750
 20
14.336790
 30
0.0
 10
339.368848
 20
14.003415
 30
0.0
 10
338.941280
 20
13.892290
 30
0.0
 10
338.293580
 20
14.171690
 30
0.0
 10
338.026880
 20
14.840560
 30
0.0
 10
338.293580
 20
15.505190
 30
0.0
 10
338.941280
 20
15.784590
 30
0.0
 10
339.366733
 20
15.674523
 30
0.0
 10
339.711750
 20
15.344320
 30
0.0
 10
339.711750
 20
16.343390
 30
0.0
 10
339.483150
 20
16.343390
 30
0.0
 10
339.368850
 20
16.432290
 30
0.0
 10
339.483150
 20
16.516990
 30
0.0
  0
LWPOLYLINE
  5
142
100
AcDbEntity
  8
Calque_1
 62
7
100
AcDbPolyline
 90
9
 70
1
 10
338.953980
 20
15.611050
 30
0.0
 10
338.420580
 20
15.386690
 30
0.0
 10
338.200450
 20
14.840590
 30
0.0
 10
338.420580
 20
14.290250
 30
0.0
 10
338.958220
 20
14.065890
 30
0.0
 10
339.491620
 20
14.290250
 30
0.0
 10
339.711750
 20
14.832120
 30
0.0
 10
339.491620
 20
15.386690
 30
0.0
 10
338.953980
 20
15.611050
 30
0.0
  0
LWPOLYLINE
  5
143
100
AcDbEntity
  8
Calque_1
 62
7
100
AcDbPolyline
 90
22
 70
1
 10
342.499860
 20
14.802490
 30
0.0
 10
340.738800
 20
14.802490
 30
0.0
 10
341.018200
 20
14.264850
 30
0.0
 10
341.593930
 20
14.065890
 30
0.0
 10
342.000330
 20
14.129390
 30
0.0
 10
342.334760
 20
14.294490
 30
0.0
 10
342.402460
 20
14.324090
 30
0.0
 10
342.457460
 20
14.298690
 30
0.0
 10
342.482860
 20
14.239390
 30
0.0
 10
342.178060
 20
14.010790
 30
0.0
 10
341.589630
 20
13.892260
 30
0.0
 10
341.193810
 20
13.964228
 30
0.0
 10
340.861490
 20
14.180130
 30
0.0
 10
340.639243
 20
14.498685
 30
0.0
 10
340.565160
 20
14.878630
 30
0.0
 10
340.635010
 20
15.232110
 30
0.0
 10
340.844560
 20
15.522090
 30
0.0
 10
341.530360
 20
15.784560
 30
0.0
 10
341.918770
 20
15.716828
 30
0.0
 10
342.228860
 20
15.513630
 30
0.0
 10
342.432058
 20
15.202480
 30
0.0
 10
342.499790
 20
14.802430
 30
0.0
  0
LWPOLYLINE
  5
144
100
AcDbEntity
  8
Calque_1
 62
7
100
AcDbPolyline
 90
6
 70
1
 10
340.738800
 20
14.976050
 30
0.0
 10
342.322060
 20
14.976050
 30
0.0
 10
342.055360
 20
15.437490
 30
0.0
 10
341.530430
 20
15.611050
 30
0.0
 10
341.009730
 20
15.437490
 30
0.0
 10
340.738800
 20
14.976050
 30
0.0
  0
LWPOLYLINE
  5
145
100
AcDbEntity
  8
Calque_1
 62
7
100
AcDbPolyline
 90
30
 70
1
 10
345.101710
 20
14.332590
 30
0.0
 10
345.029710
 20
14.222520
 30
0.0
 10
344.839210
 20
14.078590
 30
0.0
 10
344.534410
 20
13.947350
 30
0.0
 10
344.144950
 20
13.892350
 30
0.0
 10
343.459150
 20
14.154820
 30
0.0
 10
343.259125
 20
14.453265
 30
0.0
 10
343.192450
 20
14.823680
 30
0.0
 10
343.261240
 20
15.205740
 30
0.0
 10
343.467610
 20
15.513720
 30
0.0
 10
343.779820
 20
15.716918
 30
0.0
 10
344.166110
 20
15.784650
 30
0.0
 10
344.826510
 20
15.551820
 30
0.0
 10
344.826510
 20
15.606820
 30
0.0
 10
344.915410
 20
15.725350
 30
0.0
 10
345.000110
 20
15.606820
 30
0.0
 10
345.000110
 20
15.221590
 30
0.0
 10
344.915410
 20
15.107290
 30
0.0
 10
344.826510
 20
15.208890
 30
0.0
 10
344.614850
 20
15.492520
 30
0.0
 10
344.153410
 20
15.611050
 30
0.0
 10
343.581910
 20
15.390920
 30
0.0
 10
343.366010
 20
14.827890
 30
0.0
 10
343.586150
 20
14.277550
 30
0.0
 10
344.153410
 20
14.065890
 30
0.0
 10
344.582040
 20
14.142090
 30
0.0
 10
344.945050
 20
14.370690
 30
0.0
 10
345.021250
 20
14.412990
 30
0.0
 10
345.076250
 20
14.387590
 30
0.0
 10
345.101650
 20
14.332590
 30
0.0
  0
LWPOLYLINE
  5
146
100
AcDbEntity
  8
Calque_1
 62
7
100
AcDbPolyline
 90
25
 70
1
 10
345.904390
 20
15.560250
 30
0.0
 10
346.192260
 20
15.716890
 30
0.0
 10
346.640990
 20
15.784590
 30
0.0
 10
347.127820
 20
15.636420
 30
0.0
 10
347.322560
 20
15.263890
 30
0.0
 10
347.322560
 20
14.133590
 30
0.0
 10
347.551160
 20
14.133590
 30
0.0
 10
347.665460
 20
14.048890
 30
0.0
 10
347.551160
 20
13.959990
 30
0.0
 10
347.148990
 20
13.959990
 30
0.0
 10
347.148990
 20
14.243630
 30
0.0
 10
346.758463
 20
13.980103
 30
0.0
 10
346.340420
 20
13.892260
 30
0.0
 10
345.862060
 20
14.040430
 30
0.0
 10
345.680020
 20
14.434130
 30
0.0
 10
345.925560
 20
14.878630
 30
0.0
 10
346.573260
 20
15.052190
 30
0.0
 10
347.148990
 20
14.963290
 30
0.0
 10
347.148990
 20
15.263860
 30
0.0
 10
347.005060
 20
15.513630
 30
0.0
 10
346.628290
 20
15.611030
 30
0.0
 10
346.226120
 20
15.543330
 30
0.0
 10
345.984820
 20
15.475630
 30
0.0
 10
345.925520
 20
15.501030
 30
0.0
 10
345.904320
 20
15.560330
 30
0.0
  0
LWPOLYLINE
  5
147
100
AcDbEntity
  8
Calque_1
 62
7
100
AcDbPolyline
 90
9
 70
1
 10
347.148990
 20
14.434190
 30
0.0
 10
347.148990
 20
14.815190
 30
0.0
 10
346.607120
 20
14.878690
 30
0.0
 10
346.061020
 20
14.751690
 30
0.0
 10
345.853590
 20
14.429950
 30
0.0
 10
345.984820
 20
14.163250
 30
0.0
 10
346.336190
 20
14.065850
 30
0.0
 10
346.746820
 20
14.150550
 30
0.0
 10
347.148990
 20
14.434190
 30
0.0
  0
LWPOLYLINE
  5
148
100
AcDbEntity
  8
Calque_1
 62
7
100
AcDbPolyline
 90
26
 70
1
 10
349.107370
 20
13.960050
 30
0.0
 10
348.311500
 20
15.551790
 30
0.0
 10
348.243800
 20
15.551790
 30
0.0
 10
348.129500
 20
15.640690
 30
0.0
 10
348.243800
 20
15.725390
 30
0.0
 10
348.730630
 20
15.725390
 30
0.0
 10
348.844930
 20
15.640690
 30
0.0
 10
348.730630
 20
15.551790
 30
0.0
 10
348.510500
 20
15.551790
 30
0.0
 10
349.204760
 20
14.150550
 30
0.0
 10
349.886330
 20
15.551790
 30
0.0
 10
349.657730
 20
15.551790
 30
0.0
 10
349.543430
 20
15.640690
 30
0.0
 10
349.657730
 20
15.725390
 30
0.0
 10
350.123400
 20
15.725390
 30
0.0
 10
350.237700
 20
15.640690
 30
0.0
 10
350.123400
 20
15.551790
 30
0.0
 10
350.064100
 20
15.551790
 30
0.0
 10
348.980370
 20
13.346220
 30
0.0
 10
349.255530
 20
13.346220
 30
0.0
 10
349.369830
 20
13.261520
 30
0.0
 10
349.255530
 20
13.172620
 30
0.0
 10
348.269170
 20
13.172620
 30
0.0
 10
348.154870
 20
13.261520
 30
0.0
 10
348.269170
 20
13.346220
 30
0.0
 10
348.806800
 20
13.346220
 30
0.0
  0
LWPOLYLINE
  5
149
100
AcDbEntity
  8
Calque_1
 62
7
100
AcDbPolyline
 90
38
 70
1
 10
373.067580
 20
14.455350
 30
0.0
 10
372.923650
 20
14.696650
 30
0.0
 10
372.576520
 20
14.810950
 30
0.0
 10
372.170120
 20
14.874450
 30
0.0
 10
371.822980
 20
15.014150
 30
0.0
 10
371.679050
 20
15.306250
 30
0.0
 10
371.882250
 20
15.649150
 30
0.0
 10
372.402950
 20
15.784620
 30
0.0
 10
372.982920
 20
15.589890
 30
0.0
 10
372.982920
 20
15.606790
 30
0.0
 10
373.071820
 20
15.725320
 30
0.0
 10
373.156520
 20
15.606790
 30
0.0
 10
373.156520
 20
15.314690
 30
0.0
 10
373.071820
 20
15.200390
 30
0.0
 10
372.982920
 20
15.297790
 30
0.0
 10
372.813580
 20
15.526390
 30
0.0
 10
372.419880
 20
15.611090
 30
0.0
 10
372.026180
 20
15.517990
 30
0.0
 10
371.869550
 20
15.293620
 30
0.0
 10
372.013480
 20
15.098890
 30
0.0
 10
372.360620
 20
15.001490
 30
0.0
 10
372.767020
 20
14.933790
 30
0.0
 10
373.114150
 20
14.772920
 30
0.0
 10
373.258080
 20
14.451190
 30
0.0
 10
373.021020
 20
14.049020
 30
0.0
 10
372.428350
 20
13.892390
 30
0.0
 10
371.763720
 20
14.120990
 30
0.0
 10
371.763720
 20
14.074390
 30
0.0
 10
371.679020
 20
13.960090
 30
0.0
 10
371.590120
 20
14.074390
 30
0.0
 10
371.590120
 20
14.425760
 30
0.0
 10
371.679020
 20
14.540060
 30
0.0
 10
371.763720
 20
14.446960
 30
0.0
 10
371.763720
 20
14.417360
 30
0.0
 10
371.954220
 20
14.167600
 30
0.0
 10
372.415650
 20
14.066000
 30
0.0
 10
372.881320
 20
14.176060
 30
0.0
 10
373.067580
 20
14.455460
 30
0.0
  0
LWPOLYLINE
  5
14a
100
AcDbEntity
  8
Calque_1
 62
7
100
AcDbPolyline
 90
25
 70
1
 10
375.550900
 20
13.960050
 30
0.0
 10
375.550900
 20
14.239450
 30
0.0
 10
375.180483
 20
13.979103
 30
0.0
 10
374.780430
 20
13.892320
 30
0.0
 10
374.369800
 20
14.044720
 30
0.0
 10
374.217400
 20
14.446890
 30
0.0
 10
374.217400
 20
15.551790
 30
0.0
 10
373.988800
 20
15.551790
 30
0.0
 10
373.874500
 20
15.640690
 30
0.0
 10
373.988800
 20
15.725390
 30
0.0
 10
374.390960
 20
15.725390
 30
0.0
 10
374.390960
 20
14.446930
 30
0.0
 10
374.501030
 20
14.175990
 30
0.0
 10
374.776200
 20
14.065930
 30
0.0
 10
375.181540
 20
14.161180
 30
0.0
 10
375.550900
 20
14.446930
 30
0.0
 10
375.550900
 20
15.551830
 30
0.0
 10
375.237630
 20
15.551830
 30
0.0
 10
375.119100
 20
15.640730
 30
0.0
 10
375.237630
 20
15.725430
 30
0.0
 10
375.724460
 20
15.725430
 30
0.0
 10
375.724460
 20
14.133700
 30
0.0
 10
375.868400
 20
14.133700
 30
0.0
 10
375.982700
 20
14.049000
 30
0.0
 10
375.868400
 20
13.960100
 30
0.0
  0
LWPOLYLINE
  5
14b
100
AcDbEntity
  8
Calque_1
 62
7
100
AcDbPolyline
 90
38
 70
1
 10
378.144280
 20
14.455350
 30
0.0
 10
378.000340
 20
14.696650
 30
0.0
 10
377.653210
 20
14.810950
 30
0.0
 10
377.246810
 20
14.874450
 30
0.0
 10
376.899680
 20
15.014150
 30
0.0
 10
376.755740
 20
15.306250
 30
0.0
 10
376.958940
 20
15.649150
 30
0.0
 10
377.479640
 20
15.784620
 30
0.0
 10
378.059610
 20
15.589890
 30
0.0
 10
378.059610
 20
15.606790
 30
0.0
 10
378.148510
 20
15.725320
 30
0.0
 10
378.233210
 20
15.606790
 30
0.0
 10
378.233210
 20
15.314690
 30
0.0
 10
378.148510
 20
15.200390
 30
0.0
 10
378.059610
 20
15.297790
 30
0.0
 10
377.890280
 20
15.526390
 30
0.0
 10
377.496580
 20
15.611090
 30
0.0
 10
377.102880
 20
15.517990
 30
0.0
 10
376.946240
 20
15.293620
 30
0.0
 10
377.090180
 20
15.098890
 30
0.0
 10
377.437310
 20
15.001490
 30
0.0
 10
377.843710
 20
14.933790
 30
0.0
 10
378.190840
 20
14.772920
 30
0.0
 10
378.334780
 20
14.451190
 30
0.0
 10
378.097710
 20
14.049020
 30
0.0
 10
377.505040
 20
13.892390
 30
0.0
 10
376.840410
 20
14.120990
 30
0.0
 10
376.840410
 20
14.074390
 30
0.0
 10
376.755710
 20
13.960090
 30
0.0
 10
376.666810
 20
14.074390
 30
0.0
 10
376.666810
 20
14.425760
 30
0.0
 10
376.755710
 20
14.540060
 30
0.0
 10
376.840410
 20
14.446960
 30
0.0
 10
376.840410
 20
14.417360
 30
0.0
 10
377.030910
 20
14.167600
 30
0.0
 10
377.492340
 20
14.066000
 30
0.0
 10
377.958010
 20
14.176060
 30
0.0
 10
378.144280
 20
14.455460
 30
0.0
  0
LWPOLYLINE
  5
14c
100
AcDbEntity
  8
Calque_1
 62
7
100
AcDbPolyline
 90
25
 70
1
 10
379.556560
 20
15.725350
 30
0.0
 10
380.487890
 20
15.725350
 30
0.0
 10
380.602190
 20
15.640650
 30
0.0
 10
380.487890
 20
15.551750
 30
0.0
 10
379.556560
 20
15.551750
 30
0.0
 10
379.556560
 20
14.421450
 30
0.0
 10
379.683560
 20
14.163210
 30
0.0
 10
380.030690
 20
14.065810
 30
0.0
 10
380.407460
 20
14.112410
 30
0.0
 10
380.733420
 20
14.235180
 30
0.0
 10
380.801120
 20
14.260580
 30
0.0
 10
380.856120
 20
14.235180
 30
0.0
 10
380.881520
 20
14.175880
 30
0.0
 10
380.593650
 20
13.985380
 30
0.0
 10
380.039090
 20
13.892280
 30
0.0
 10
379.560720
 20
14.031980
 30
0.0
 10
379.382920
 20
14.412980
 30
0.0
 10
379.382920
 20
15.551750
 30
0.0
 10
379.069650
 20
15.551750
 30
0.0
 10
378.951120
 20
15.640650
 30
0.0
 10
379.069650
 20
15.725350
 30
0.0
 10
379.382920
 20
15.725350
 30
0.0
 10
379.382920
 20
16.229120
 30
0.0
 10
379.471820
 20
16.343420
 30
0.0
 10
379.556520
 20
16.229120
 30
0.0
  0
LWPOLYLINE
  5
14d
100
AcDbEntity
  8
Calque_1
 62
7
100
AcDbPolyline
 90
25
 70
1
 10
381.836670
 20
15.560250
 30
0.0
 10
382.124540
 20
15.716890
 30
0.0
 10
382.573270
 20
15.784590
 30
0.0
 10
383.060100
 20
15.636420
 30
0.0
 10
383.254840
 20
15.263890
 30
0.0
 10
383.254840
 20
14.133590
 30
0.0
 10
383.483440
 20
14.133590
 30
0.0
 10
383.597740
 20
14.048890
 30
0.0
 10
383.483440
 20
13.959990
 30
0.0
 10
383.081270
 20
13.959990
 30
0.0
 10
383.081270
 20
14.243630
 30
0.0
 10
382.690743
 20
13.980103
 30
0.0
 10
382.272700
 20
13.892260
 30
0.0
 10
381.794340
 20
14.040430
 30
0.0
 10
381.612300
 20
14.434130
 30
0.0
 10
381.857840
 20
14.878630
 30
0.0
 10
382.505540
 20
15.052190
 30
0.0
 10
383.081270
 20
14.963290
 30
0.0
 10
383.081270
 20
15.263860
 30
0.0
 10
382.937340
 20
15.513630
 30
0.0
 10
382.560570
 20
15.611030
 30
0.0
 10
382.158400
 20
15.543330
 30
0.0
 10
381.917100
 20
15.475630
 30
0.0
 10
381.857800
 20
15.501030
 30
0.0
 10
381.836600
 20
15.560330
 30
0.0
  0
LWPOLYLINE
  5
14e
100
AcDbEntity
  8
Calque_1
 62
7
100
AcDbPolyline
 90
9
 70
1
 10
383.081270
 20
14.434190
 30
0.0
 10
383.081270
 20
14.815190
 30
0.0
 10
382.539400
 20
14.878690
 30
0.0
 10
381.993300
 20
14.751690
 30
0.0
 10
381.785870
 20
14.429950
 30
0.0
 10
381.917100
 20
14.163250
 30
0.0
 10
382.268470
 20
14.065850
 30
0.0
 10
382.679100
 20
14.150550
 30
0.0
 10
383.081270
 20
14.434190
 30
0.0
  0
LWPOLYLINE
  5
14f
100
AcDbEntity
  8
Calque_1
 62
7
100
AcDbPolyline
 90
13
 70
1
 10
385.200520
 20
15.725350
 30
0.0
 10
385.200520
 20
14.133620
 30
0.0
 10
385.877850
 20
14.133620
 30
0.0
 10
385.996380
 20
14.048920
 30
0.0
 10
385.877850
 20
13.960020
 30
0.0
 10
384.349620
 20
13.960020
 30
0.0
 10
384.235320
 20
14.048920
 30
0.0
 10
384.349620
 20
14.133620
 30
0.0
 10
385.026950
 20
14.133620
 30
0.0
 10
385.026950
 20
15.551790
 30
0.0
 10
384.527420
 20
15.551790
 30
0.0
 10
384.413120
 20
15.640690
 30
0.0
 10
384.527420
 20
15.725390
 30
0.0
  0
LWPOLYLINE
  5
150
100
AcDbEntity
  8
Calque_1
 62
7
100
AcDbPolyline
 90
4
 70
1
 10
385.192520
 20
16.601650
 30
0.0
 10
385.192520
 20
16.161390
 30
0.0
 10
384.942750
 20
16.161390
 30
0.0
 10
384.942750
 20
16.601650
 30
0.0
  0
LWPOLYLINE
  5
151
100
AcDbEntity
  8
Calque_1
 62
7
100
AcDbPolyline
 90
37
 70
1
 10
387.734630
 20
15.611050
 30
0.0
 10
387.586460
 20
15.594150
 30
0.0
 10
387.455230
 20
15.547550
 30
0.0
 10
387.353630
 20
15.488250
 30
0.0
 10
387.260530
 20
15.412050
 30
0.0
 10
387.192830
 20
15.335850
 30
0.0
 10
387.133530
 20
15.259650
 30
0.0
 10
387.091230
 20
15.204650
 30
0.0
 10
387.091230
 20
14.133620
 30
0.0
 10
387.281730
 20
14.133620
 30
0.0
 10
387.396030
 20
14.048920
 30
0.0
 10
387.281730
 20
13.960020
 30
0.0
 10
386.727170
 20
13.960020
 30
0.0
 10
386.608630
 20
14.048920
 30
0.0
 10
386.727170
 20
14.133620
 30
0.0
 10
386.917670
 20
14.133620
 30
0.0
 10
386.917670
 20
15.551790
 30
0.0
 10
386.773730
 20
15.551790
 30
0.0
 10
386.659430
 20
15.640690
 30
0.0
 10
386.773730
 20
15.725390
 30
0.0
 10
387.091230
 20
15.725390
 30
0.0
 10
387.091230
 20
15.433290
 30
0.0
 10
387.412970
 20
15.708460
 30
0.0
 10
387.751630
 20
15.784660
 30
0.0
 10
388.225770
 20
15.619560
 30
0.0
 10
388.416270
 20
15.208930
 30
0.0
 10
388.416270
 20
14.133660
 30
0.0
 10
388.560200
 20
14.133660
 30
0.0
 10
388.674500
 20
14.048960
 30
0.0
 10
388.560200
 20
13.960060
 30
0.0
 10
388.098770
 20
13.960060
 30
0.0
 10
387.984470
 20
14.048960
 30
0.0
 10
388.098770
 20
14.133660
 30
0.0
 10
388.242700
 20
14.133660
 30
0.0
 10
388.242700
 20
15.179290
 30
0.0
 10
388.103000
 20
15.484090
 30
0.0
 10
387.734700
 20
15.611090
 30
0.0
  0
LWPOLYLINE
  5
152
100
AcDbEntity
  8
Calque_1
 62
7
100
AcDbPolyline
 90
15
 70
1
 10
207.116990
 20
15.784620
 30
0.0
 10
207.491640
 20
15.714770
 30
0.0
 10
207.802790
 20
15.505220
 30
0.0
 10
208.012340
 20
15.198303
 30
0.0
 10
208.082190
 20
14.827890
 30
0.0
 10
208.011283
 20
14.466995
 30
0.0
 10
207.798560
 20
14.163250
 30
0.0
 10
207.116990
 20
13.892320
 30
0.0
 10
206.431190
 20
14.167490
 30
0.0
 10
206.221640
 20
14.473345
 30
0.0
 10
206.151790
 20
14.840590
 30
0.0
 10
206.221640
 20
15.201478
 30
0.0
 10
206.431190
 20
15.505220
 30
0.0
 10
206.744455
 20
15.714770
 30
0.0
 10
207.116990
 20
15.784620
 30
0.0
  0
LWPOLYLINE
  5
153
100
AcDbEntity
  8
Calque_1
 62
7
100
AcDbPolyline
 90
9
 70
1
 10
207.116990
 20
15.611050
 30
0.0
 10
206.553960
 20
15.386690
 30
0.0
 10
206.325360
 20
14.840590
 30
0.0
 10
206.553960
 20
14.290250
 30
0.0
 10
207.116990
 20
14.065890
 30
0.0
 10
207.675790
 20
14.290250
 30
0.0
 10
207.908620
 20
14.827890
 30
0.0
 10
207.680020
 20
15.386690
 30
0.0
 10
207.116990
 20
15.611050
 30
0.0
  0
LWPOLYLINE
  5
154
100
AcDbEntity
  8
Calque_1
 62
7
100
AcDbPolyline
 90
38
 70
1
 10
210.298800
 20
14.455350
 30
0.0
 10
210.154870
 20
14.696650
 30
0.0
 10
209.807740
 20
14.810950
 30
0.0
 10
209.401340
 20
14.874450
 30
0.0
 10
209.054200
 20
15.014150
 30
0.0
 10
208.910270
 20
15.306250
 30
0.0
 10
209.113470
 20
15.649150
 30
0.0
 10
209.634170
 20
15.784620
 30
0.0
 10
210.214140
 20
15.589890
 30
0.0
 10
210.214140
 20
15.606790
 30
0.0
 10
210.303040
 20
15.725320
 30
0.0
 10
210.387740
 20
15.606790
 30
0.0
 10
210.387740
 20
15.314690
 30
0.0
 10
210.303040
 20
15.200390
 30
0.0
 10
210.214140
 20
15.297790
 30
0.0
 10
210.044800
 20
15.526390
 30
0.0
 10
209.651100
 20
15.611090
 30
0.0
 10
209.257400
 20
15.517990
 30
0.0
 10
209.100770
 20
15.293620
 30
0.0
 10
209.244700
 20
15.098890
 30
0.0
 10
209.591840
 20
15.001490
 30
0.0
 10
209.998240
 20
14.933790
 30
0.0
 10
210.345370
 20
14.772920
 30
0.0
 10
210.489300
 20
14.451190
 30
0.0
 10
210.252240
 20
14.049020
 30
0.0
 10
209.659570
 20
13.892390
 30
0.0
 10
208.994940
 20
14.120990
 30
0.0
 10
208.994940
 20
14.074390
 30
0.0
 10
208.910240
 20
13.960090
 30
0.0
 10
208.821340
 20
14.074390
 30
0.0
 10
208.821340
 20
14.425760
 30
0.0
 10
208.910240
 20
14.540060
 30
0.0
 10
208.994940
 20
14.446960
 30
0.0
 10
208.994940
 20
14.417360
 30
0.0
 10
209.185440
 20
14.167600
 30
0.0
 10
209.646870
 20
14.066000
 30
0.0
 10
210.112540
 20
14.176060
 30
0.0
 10
210.298800
 20
14.455460
 30
0.0
  0
LWPOLYLINE
  5
155
100
AcDbEntity
  8
Calque_1
 62
7
100
AcDbPolyline
 90
30
 70
1
 10
213.188520
 20
14.332590
 30
0.0
 10
213.116520
 20
14.222520
 30
0.0
 10
212.926020
 20
14.078590
 30
0.0
 10
212.621220
 20
13.947350
 30
0.0
 10
212.231750
 20
13.892350
 30
0.0
 10
211.545950
 20
14.154820
 30
0.0
 10
211.345925
 20
14.453265
 30
0.0
 10
211.279250
 20
14.823680
 30
0.0
 10
211.348043
 20
15.205740
 30
0.0
 10
211.554420
 20
15.513720
 30
0.0
 10
211.866630
 20
15.716918
 30
0.0
 10
212.252920
 20
15.784650
 30
0.0
 10
212.913320
 20
15.551820
 30
0.0
 10
212.913320
 20
15.606820
 30
0.0
 10
213.002220
 20
15.725350
 30
0.0
 10
213.086920
 20
15.606820
 30
0.0
 10
213.086920
 20
15.221590
 30
0.0
 10
213.002220
 20
15.107290
 30
0.0
 10
212.913320
 20
15.208890
 30
0.0
 10
212.701650
 20
15.492520
 30
0.0
 10
212.240220
 20
15.611050
 30
0.0
 10
211.668720
 20
15.390920
 30
0.0
 10
211.452820
 20
14.827890
 30
0.0
 10
211.672950
 20
14.277550
 30
0.0
 10
212.240220
 20
14.065890
 30
0.0
 10
212.668843
 20
14.142090
 30
0.0
 10
213.031850
 20
14.370690
 30
0.0
 10
213.108050
 20
14.412990
 30
0.0
 10
213.163050
 20
14.387590
 30
0.0
 10
213.188450
 20
14.332590
 30
0.0
  0
LWPOLYLINE
  5
156
100
AcDbEntity
  8
Calque_1
 62
7
100
AcDbPolyline
 90
35
 70
1
 10
216.529540
 20
16.195250
 30
0.0
 10
216.609940
 20
16.326490
 30
0.0
 10
216.876640
 20
16.491590
 30
0.0
 10
217.274570
 20
16.576290
 30
0.0
 10
217.803740
 20
16.385790
 30
0.0
 10
218.019640
 20
15.924360
 30
0.0
 10
217.879940
 20
15.534890
 30
0.0
 10
217.583600
 20
15.348630
 30
0.0
 10
217.973070
 20
15.064990
 30
0.0
 10
218.112770
 20
14.671290
 30
0.0
 10
217.850300
 20
14.120960
 30
0.0
 10
217.228000
 20
13.896590
 30
0.0
 10
216.690370
 20
14.019360
 30
0.0
 10
216.406740
 20
14.252190
 30
0.0
 10
216.432140
 20
14.307190
 30
0.0
 10
216.487140
 20
14.332590
 30
0.0
 10
216.605670
 20
14.264890
 30
0.0
 10
216.859670
 20
14.133660
 30
0.0
 10
217.232210
 20
14.070160
 30
0.0
 10
217.727510
 20
14.247960
 30
0.0
 10
217.939170
 20
14.671290
 30
0.0
 10
217.714810
 20
15.098860
 30
0.0
 10
217.181410
 20
15.280890
 30
0.0
 10
217.067110
 20
15.369790
 30
0.0
 10
217.181410
 20
15.454490
 30
0.0
 10
217.679883
 20
15.570908
 30
0.0
 10
217.846040
 20
15.920160
 30
0.0
 10
217.680940
 20
16.263060
 30
0.0
 10
217.270310
 20
16.402760
 30
0.0
 10
216.965510
 20
16.356160
 30
0.0
 10
216.791940
 20
16.258760
 30
0.0
 10
216.698840
 20
16.157160
 30
0.0
 10
216.614140
 20
16.114860
 30
0.0
 10
216.554840
 20
16.136060
 30
0.0
 10
216.529440
 20
16.195360
 30
0.0
  0
LWPOLYLINE
  5
157
100
AcDbEntity
  8
Calque_1
 62
7
100
AcDbPolyline
 90
37
 70
1
 10
263.193200
 20
33.611050
 30
0.0
 10
263.045030
 20
33.594150
 30
0.0
 10
262.913800
 20
33.547550
 30
0.0
 10
262.812200
 20
33.488250
 30
0.0
 10
262.719100
 20
33.412050
 30
0.0
 10
262.651400
 20
33.335850
 30
0.0
 10
262.592100
 20
33.259650
 30
0.0
 10
262.549800
 20
33.204650
 30
0.0
 10
262.549800
 20
32.133620
 30
0.0
 10
262.740300
 20
32.133620
 30
0.0
 10
262.854600
 20
32.048920
 30
0.0
 10
262.740300
 20
31.960020
 30
0.0
 10
262.185730
 20
31.960020
 30
0.0
 10
262.067200
 20
32.048920
 30
0.0
 10
262.185730
 20
32.133620
 30
0.0
 10
262.376230
 20
32.133620
 30
0.0
 10
262.376230
 20
33.551790
 30
0.0
 10
262.232300
 20
33.551790
 30
0.0
 10
262.118000
 20
33.640690
 30
0.0
 10
262.232300
 20
33.725390
 30
0.0
 10
262.549800
 20
33.725390
 30
0.0
 10
262.549800
 20
33.433290
 30
0.0
 10
262.871530
 20
33.708460
 30
0.0
 10
263.210200
 20
33.784660
 30
0.0
 10
263.684330
 20
33.619560
 30
0.0
 10
263.874830
 20
33.208930
 30
0.0
 10
263.874830
 20
32.133660
 30
0.0
 10
264.018770
 20
32.133660
 30
0.0
 10
264.133070
 20
32.048960
 30
0.0
 10
264.018770
 20
31.960060
 30
0.0
 10
263.557330
 20
31.960060
 30
0.0
 10
263.443030
 20
32.048960
 30
0.0
 10
263.557330
 20
32.133660
 30
0.0
 10
263.701270
 20
32.133660
 30
0.0
 10
263.701270
 20
33.179290
 30
0.0
 10
263.561570
 20
33.484090
 30
0.0
 10
263.193270
 20
33.611090
 30
0.0
  0
LWPOLYLINE
  5
158
100
AcDbEntity
  8
Calque_1
 62
7
100
AcDbPolyline
 90
15
 70
1
 10
265.651110
 20
33.784620
 30
0.0
 10
266.025760
 20
33.714770
 30
0.0
 10
266.336910
 20
33.505220
 30
0.0
 10
266.546460
 20
33.198303
 30
0.0
 10
266.616310
 20
32.827890
 30
0.0
 10
266.545403
 20
32.466995
 30
0.0
 10
266.332680
 20
32.163250
 30
0.0
 10
265.651110
 20
31.892320
 30
0.0
 10
264.965310
 20
32.167490
 30
0.0
 10
264.755760
 20
32.473345
 30
0.0
 10
264.685910
 20
32.840590
 30
0.0
 10
264.755760
 20
33.201478
 30
0.0
 10
264.965310
 20
33.505220
 30
0.0
 10
265.278575
 20
33.714770
 30
0.0
 10
265.651110
 20
33.784620
 30
0.0
  0
LWPOLYLINE
  5
159
100
AcDbEntity
  8
Calque_1
 62
7
100
AcDbPolyline
 90
9
 70
1
 10
265.651110
 20
33.611050
 30
0.0
 10
265.088080
 20
33.386690
 30
0.0
 10
264.859480
 20
32.840590
 30
0.0
 10
265.088080
 20
32.290250
 30
0.0
 10
265.651110
 20
32.065890
 30
0.0
 10
266.209910
 20
32.290250
 30
0.0
 10
266.442740
 20
32.827890
 30
0.0
 10
266.214140
 20
33.386690
 30
0.0
 10
265.651110
 20
33.611050
 30
0.0
  0
LWPOLYLINE
  5
15a
100
AcDbEntity
  8
Calque_1
 62
7
100
AcDbPolyline
 90
13
 70
1
 10
268.274120
 20
33.725350
 30
0.0
 10
268.274120
 20
32.133620
 30
0.0
 10
268.951460
 20
32.133620
 30
0.0
 10
269.069990
 20
32.048920
 30
0.0
 10
268.951460
 20
31.960020
 30
0.0
 10
267.423220
 20
31.960020
 30
0.0
 10
267.308920
 20
32.048920
 30
0.0
 10
267.423220
 20
32.133620
 30
0.0
 10
268.100560
 20
32.133620
 30
0.0
 10
268.100560
 20
33.551790
 30
0.0
 10
267.601020
 20
33.551790
 30
0.0
 10
267.486720
 20
33.640690
 30
0.0
 10
267.601020
 20
33.725390
 30
0.0
  0
LWPOLYLINE
  5
15b
100
AcDbEntity
  8
Calque_1
 62
7
100
AcDbPolyline
 90
4
 70
1
 10
268.266120
 20
34.601650
 30
0.0
 10
268.266120
 20
34.161390
 30
0.0
 10
268.016350
 20
34.161390
 30
0.0
 10
268.016350
 20
34.601650
 30
0.0
  0
LWPOLYLINE
  5
15c
100
AcDbEntity
  8
Calque_1
 62
7
100
AcDbPolyline
 90
38
 70
1
 10
271.371270
 20
32.455350
 30
0.0
 10
271.227340
 20
32.696650
 30
0.0
 10
270.880200
 20
32.810950
 30
0.0
 10
270.473800
 20
32.874450
 30
0.0
 10
270.126670
 20
33.014150
 30
0.0
 10
269.982740
 20
33.306250
 30
0.0
 10
270.185940
 20
33.649150
 30
0.0
 10
270.706640
 20
33.784620
 30
0.0
 10
271.286600
 20
33.589890
 30
0.0
 10
271.286600
 20
33.606790
 30
0.0
 10
271.375500
 20
33.725320
 30
0.0
 10
271.460200
 20
33.606790
 30
0.0
 10
271.460200
 20
33.314690
 30
0.0
 10
271.375500
 20
33.200390
 30
0.0
 10
271.286600
 20
33.297790
 30
0.0
 10
271.117270
 20
33.526390
 30
0.0
 10
270.723570
 20
33.611090
 30
0.0
 10
270.329870
 20
33.517990
 30
0.0
 10
270.173240
 20
33.293620
 30
0.0
 10
270.317170
 20
33.098890
 30
0.0
 10
270.664300
 20
33.001490
 30
0.0
 10
271.070700
 20
32.933790
 30
0.0
 10
271.417840
 20
32.772920
 30
0.0
 10
271.561770
 20
32.451190
 30
0.0
 10
271.324700
 20
32.049020
 30
0.0
 10
270.732040
 20
31.892390
 30
0.0
 10
270.067400
 20
32.120990
 30
0.0
 10
270.067400
 20
32.074390
 30
0.0
 10
269.982700
 20
31.960090
 30
0.0
 10
269.893800
 20
32.074390
 30
0.0
 10
269.893800
 20
32.425760
 30
0.0
 10
269.982700
 20
32.540060
 30
0.0
 10
270.067400
 20
32.446960
 30
0.0
 10
270.067400
 20
32.417360
 30
0.0
 10
270.257900
 20
32.167600
 30
0.0
 10
270.719340
 20
32.066000
 30
0.0
 10
271.185000
 20
32.176060
 30
0.0
 10
271.371270
 20
32.455460
 30
0.0
  0
LWPOLYLINE
  5
15d
100
AcDbEntity
  8
Calque_1
 62
7
100
AcDbPolyline
 90
22
 70
1
 10
274.197480
 20
32.802490
 30
0.0
 10
272.436420
 20
32.802490
 30
0.0
 10
272.715820
 20
32.264850
 30
0.0
 10
273.291550
 20
32.065890
 30
0.0
 10
273.697950
 20
32.129390
 30
0.0
 10
274.032380
 20
32.294490
 30
0.0
 10
274.100080
 20
32.324090
 30
0.0
 10
274.155080
 20
32.298690
 30
0.0
 10
274.180480
 20
32.239390
 30
0.0
 10
273.875680
 20
32.010790
 30
0.0
 10
273.287250
 20
31.892260
 30
0.0
 10
272.891430
 20
31.964228
 30
0.0
 10
272.559110
 20
32.180130
 30
0.0
 10
272.336863
 20
32.498685
 30
0.0
 10
272.262780
 20
32.878630
 30
0.0
 10
272.332630
 20
33.232110
 30
0.0
 10
272.542180
 20
33.522090
 30
0.0
 10
273.227980
 20
33.784560
 30
0.0
 10
273.616390
 20
33.716828
 30
0.0
 10
273.926480
 20
33.513630
 30
0.0
 10
274.129678
 20
33.202480
 30
0.0
 10
274.197410
 20
32.802430
 30
0.0
  0
LWPOLYLINE
  5
15e
100
AcDbEntity
  8
Calque_1
 62
7
100
AcDbPolyline
 90
6
 70
1
 10
272.436420
 20
32.976050
 30
0.0
 10
274.019680
 20
32.976050
 30
0.0
 10
273.752980
 20
33.437490
 30
0.0
 10
273.228050
 20
33.611050
 30
0.0
 10
272.707350
 20
33.437490
 30
0.0
 10
272.436420
 20
32.976050
 30
0.0
  0
LWPOLYLINE
  5
15f
100
AcDbEntity
  8
Calque_1
 62
7
100
AcDbPolyline
 90
30
 70
1
 10
260.082040
 20
70.292620
 30
0.0
 10
259.976200
 20
70.305320
 30
0.0
 10
259.739140
 20
70.330720
 30
0.0
 10
259.497840
 20
70.343420
 30
0.0
 10
259.159170
 20
70.241820
 30
0.0
 10
259.027940
 20
69.983590
 30
0.0
 10
259.027940
 20
69.725350
 30
0.0
 10
259.828040
 20
69.725350
 30
0.0
 10
259.942340
 20
69.640650
 30
0.0
 10
259.828040
 20
69.551750
 30
0.0
 10
259.027940
 20
69.551750
 30
0.0
 10
259.027940
 20
68.133580
 30
0.0
 10
259.781470
 20
68.133580
 30
0.0
 10
259.895770
 20
68.048880
 30
0.0
 10
259.781470
 20
67.959980
 30
0.0
 10
258.439500
 20
67.959980
 30
0.0
 10
258.325200
 20
68.048880
 30
0.0
 10
258.439500
 20
68.133580
 30
0.0
 10
258.854370
 20
68.133580
 30
0.0
 10
258.854370
 20
69.551750
 30
0.0
 10
258.481840
 20
69.551750
 30
0.0
 10
258.367540
 20
69.640650
 30
0.0
 10
258.481840
 20
69.725350
 30
0.0
 10
258.854370
 20
69.725350
 30
0.0
 10
258.854370
 20
69.983590
 30
0.0
 10
259.036400
 20
70.364590
 30
0.0
 10
259.506300
 20
70.516990
 30
0.0
 10
260.094740
 20
70.461990
 30
0.0
 10
260.170940
 20
70.377290
 30
0.0
 10
260.082040
 20
70.292590
 30
0.0
  0
LWPOLYLINE
  5
160
100
AcDbEntity
  8
Calque_1
 62
7
100
AcDbPolyline
 90
22
 70
1
 10
262.620380
 20
68.802490
 30
0.0
 10
260.859320
 20
68.802490
 30
0.0
 10
261.138720
 20
68.264850
 30
0.0
 10
261.714450
 20
68.065890
 30
0.0
 10
262.120850
 20
68.129390
 30
0.0
 10
262.455280
 20
68.294490
 30
0.0
 10
262.522980
 20
68.324090
 30
0.0
 10
262.577980
 20
68.298690
 30
0.0
 10
262.603380
 20
68.239390
 30
0.0
 10
262.298580
 20
68.010790
 30
0.0
 10
261.710150
 20
67.892260
 30
0.0
 10
261.314330
 20
67.964228
 30
0.0
 10
260.982010
 20
68.180130
 30
0.0
 10
260.759763
 20
68.498685
 30
0.0
 10
260.685680
 20
68.878630
 30
0.0
 10
260.755530
 20
69.232110
 30
0.0
 10
260.965080
 20
69.522090
 30
0.0
 10
261.650880
 20
69.784560
 30
0.0
 10
262.039290
 20
69.716828
 30
0.0
 10
262.349380
 20
69.513630
 30
0.0
 10
262.552578
 20
69.202480
 30
0.0
 10
262.620310
 20
68.802430
 30
0.0
  0
LWPOLYLINE
  5
161
100
AcDbEntity
  8
Calque_1
 62
7
100
AcDbPolyline
 90
6
 70
1
 10
260.859320
 20
68.976050
 30
0.0
 10
262.442580
 20
68.976050
 30
0.0
 10
262.175880
 20
69.437490
 30
0.0
 10
261.650950
 20
69.611050
 30
0.0
 10
261.130250
 20
69.437490
 30
0.0
 10
260.859320
 20
68.976050
 30
0.0
  0
LWPOLYLINE
  5
162
100
AcDbEntity
  8
Calque_1
 62
7
100
AcDbPolyline
 90
22
 70
1
 10
265.158730
 20
68.802490
 30
0.0
 10
263.397660
 20
68.802490
 30
0.0
 10
263.677060
 20
68.264850
 30
0.0
 10
264.252800
 20
68.065890
 30
0.0
 10
264.659200
 20
68.129390
 30
0.0
 10
264.993630
 20
68.294490
 30
0.0
 10
265.061330
 20
68.324090
 30
0.0
 10
265.116330
 20
68.298690
 30
0.0
 10
265.141730
 20
68.239390
 30
0.0
 10
264.836930
 20
68.010790
 30
0.0
 10
264.248490
 20
67.892260
 30
0.0
 10
263.852678
 20
67.964228
 30
0.0
 10
263.520360
 20
68.180130
 30
0.0
 10
263.298113
 20
68.498685
 30
0.0
 10
263.224030
 20
68.878630
 30
0.0
 10
263.293880
 20
69.232110
 30
0.0
 10
263.503430
 20
69.522090
 30
0.0
 10
264.189230
 20
69.784560
 30
0.0
 10
264.577635
 20
69.716828
 30
0.0
 10
264.887730
 20
69.513630
 30
0.0
 10
265.090928
 20
69.202480
 30
0.0
 10
265.158660
 20
68.802430
 30
0.0
  0
LWPOLYLINE
  5
163
100
AcDbEntity
  8
Calque_1
 62
7
100
AcDbPolyline
 90
6
 70
1
 10
263.397660
 20
68.976050
 30
0.0
 10
264.980930
 20
68.976050
 30
0.0
 10
264.714230
 20
69.437490
 30
0.0
 10
264.189300
 20
69.611050
 30
0.0
 10
263.668600
 20
69.437490
 30
0.0
 10
263.397660
 20
68.976050
 30
0.0
  0
LWPOLYLINE
  5
164
100
AcDbEntity
  8
Calque_1
 62
7
100
AcDbPolyline
 90
19
 70
1
 10
267.620880
 20
70.516990
 30
0.0
 10
267.620880
 20
68.133620
 30
0.0
 10
267.849480
 20
68.133620
 30
0.0
 10
267.963780
 20
68.048920
 30
0.0
 10
267.849480
 20
67.960020
 30
0.0
 10
267.447310
 20
67.960020
 30
0.0
 10
267.447310
 20
68.336790
 30
0.0
 10
267.104408
 20
68.003415
 30
0.0
 10
266.676840
 20
67.892290
 30
0.0
 10
266.029140
 20
68.171690
 30
0.0
 10
265.762440
 20
68.840560
 30
0.0
 10
266.029140
 20
69.505190
 30
0.0
 10
266.676840
 20
69.784590
 30
0.0
 10
267.102293
 20
69.674523
 30
0.0
 10
267.447310
 20
69.344320
 30
0.0
 10
267.447310
 20
70.343390
 30
0.0
 10
267.218710
 20
70.343390
 30
0.0
 10
267.104410
 20
70.432290
 30
0.0
 10
267.218710
 20
70.516990
 30
0.0
  0
LWPOLYLINE
  5
165
100
AcDbEntity
  8
Calque_1
 62
7
100
AcDbPolyline
 90
9
 70
1
 10
266.689540
 20
69.611050
 30
0.0
 10
266.156140
 20
69.386690
 30
0.0
 10
265.936010
 20
68.840590
 30
0.0
 10
266.156140
 20
68.290250
 30
0.0
 10
266.693780
 20
68.065890
 30
0.0
 10
267.227180
 20
68.290250
 30
0.0
 10
267.447310
 20
68.832120
 30
0.0
 10
267.227180
 20
69.386690
 30
0.0
 10
266.689540
 20
69.611050
 30
0.0
  0
LWPOLYLINE
  5
166
100
AcDbEntity
  8
Calque_1
 62
7
100
AcDbPolyline
 90
20
 70
1
 10
268.643690
 20
70.516990
 30
0.0
 10
268.643690
 20
69.348590
 30
0.0
 10
268.988705
 20
69.675613
 30
0.0
 10
269.405690
 20
69.784620
 30
0.0
 10
270.057620
 20
69.513690
 30
0.0
 10
270.324320
 20
68.849050
 30
0.0
 10
270.053390
 20
68.171720
 30
0.0
 10
269.758115
 20
67.962170
 30
0.0
 10
269.405690
 20
67.892320
 30
0.0
 10
268.982355
 20
68.002388
 30
0.0
 10
268.643690
 20
68.332590
 30
0.0
 10
268.643690
 20
67.960050
 30
0.0
 10
268.241520
 20
67.960050
 30
0.0
 10
268.127220
 20
68.048950
 30
0.0
 10
268.241520
 20
68.133650
 30
0.0
 10
268.470120
 20
68.133650
 30
0.0
 10
268.470120
 20
70.343450
 30
0.0
 10
268.241520
 20
70.343450
 30
0.0
 10
268.127220
 20
70.432350
 30
0.0
 10
268.241520
 20
70.517050
 30
0.0
  0
LWPOLYLINE
  5
167
100
AcDbEntity
  8
Calque_1
 62
7
100
AcDbPolyline
 90
9
 70
1
 10
269.397220
 20
69.611050
 30
0.0
 10
268.863820
 20
69.386690
 30
0.0
 10
268.643690
 20
68.840590
 30
0.0
 10
268.863820
 20
68.290250
 30
0.0
 10
269.397220
 20
68.065890
 30
0.0
 10
269.926390
 20
68.290250
 30
0.0
 10
270.150750
 20
68.827890
 30
0.0
 10
269.930620
 20
69.382450
 30
0.0
 10
269.397220
 20
69.611050
 30
0.0
  0
LWPOLYLINE
  5
168
100
AcDbEntity
  8
Calque_1
 62
7
100
AcDbPolyline
 90
25
 70
1
 10
271.101600
 20
69.560250
 30
0.0
 10
271.389470
 20
69.716890
 30
0.0
 10
271.838200
 20
69.784590
 30
0.0
 10
272.325030
 20
69.636420
 30
0.0
 10
272.519770
 20
69.263890
 30
0.0
 10
272.519770
 20
68.133590
 30
0.0
 10
272.748370
 20
68.133590
 30
0.0
 10
272.862670
 20
68.048890
 30
0.0
 10
272.748370
 20
67.959990
 30
0.0
 10
272.346200
 20
67.959990
 30
0.0
 10
272.346200
 20
68.243630
 30
0.0
 10
271.955673
 20
67.980103
 30
0.0
 10
271.537630
 20
67.892260
 30
0.0
 10
271.059270
 20
68.040430
 30
0.0
 10
270.877230
 20
68.434130
 30
0.0
 10
271.122770
 20
68.878630
 30
0.0
 10
271.770470
 20
69.052190
 30
0.0
 10
272.346200
 20
68.963290
 30
0.0
 10
272.346200
 20
69.263860
 30
0.0
 10
272.202270
 20
69.513630
 30
0.0
 10
271.825500
 20
69.611030
 30
0.0
 10
271.423330
 20
69.543330
 30
0.0
 10
271.182030
 20
69.475630
 30
0.0
 10
271.122730
 20
69.501030
 30
0.0
 10
271.101530
 20
69.560330
 30
0.0
  0
LWPOLYLINE
  5
169
100
AcDbEntity
  8
Calque_1
 62
7
100
AcDbPolyline
 90
9
 70
1
 10
272.346200
 20
68.434190
 30
0.0
 10
272.346200
 20
68.815190
 30
0.0
 10
271.804330
 20
68.878690
 30
0.0
 10
271.258230
 20
68.751690
 30
0.0
 10
271.050800
 20
68.429950
 30
0.0
 10
271.182030
 20
68.163250
 30
0.0
 10
271.533400
 20
68.065850
 30
0.0
 10
271.944030
 20
68.150550
 30
0.0
 10
272.346200
 20
68.434190
 30
0.0
  0
LWPOLYLINE
  5
16a
100
AcDbEntity
  8
Calque_1
 62
7
100
AcDbPolyline
 90
30
 70
1
 10
275.375610
 20
68.332590
 30
0.0
 10
275.303610
 20
68.222520
 30
0.0
 10
275.113110
 20
68.078590
 30
0.0
 10
274.808310
 20
67.947350
 30
0.0
 10
274.418840
 20
67.892350
 30
0.0
 10
273.733040
 20
68.154820
 30
0.0
 10
273.533015
 20
68.453265
 30
0.0
 10
273.466340
 20
68.823680
 30
0.0
 10
273.535133
 20
69.205740
 30
0.0
 10
273.741510
 20
69.513720
 30
0.0
 10
274.053715
 20
69.716918
 30
0.0
 10
274.440010
 20
69.784650
 30
0.0
 10
275.100410
 20
69.551820
 30
0.0
 10
275.100410
 20
69.606820
 30
0.0
 10
275.189310
 20
69.725350
 30
0.0
 10
275.274010
 20
69.606820
 30
0.0
 10
275.274010
 20
69.221590
 30
0.0
 10
275.189310
 20
69.107290
 30
0.0
 10
275.100410
 20
69.208890
 30
0.0
 10
274.888740
 20
69.492520
 30
0.0
 10
274.427310
 20
69.611050
 30
0.0
 10
273.855810
 20
69.390920
 30
0.0
 10
273.639910
 20
68.827890
 30
0.0
 10
273.860040
 20
68.277550
 30
0.0
 10
274.427310
 20
68.065890
 30
0.0
 10
274.855933
 20
68.142090
 30
0.0
 10
275.218940
 20
68.370690
 30
0.0
 10
275.295140
 20
68.412990
 30
0.0
 10
275.350140
 20
68.387590
 30
0.0
 10
275.375540
 20
68.332590
 30
0.0
  0
LWPOLYLINE
  5
16b
100
AcDbEntity
  8
Calque_1
 62
7
100
AcDbPolyline
 90
30
 70
1
 10
276.432290
 20
68.722050
 30
0.0
 10
276.432290
 20
67.960050
 30
0.0
 10
276.030130
 20
67.960050
 30
0.0
 10
275.915830
 20
68.048950
 30
0.0
 10
276.030130
 20
68.133650
 30
0.0
 10
276.258730
 20
68.133650
 30
0.0
 10
276.258730
 20
70.343450
 30
0.0
 10
276.030130
 20
70.343450
 30
0.0
 10
275.915830
 20
70.432350
 30
0.0
 10
276.030130
 20
70.517050
 30
0.0
 10
276.432290
 20
70.517050
 30
0.0
 10
276.432290
 20
68.929550
 30
0.0
 10
277.164660
 20
69.551850
 30
0.0
 10
277.071560
 20
69.551850
 30
0.0
 10
276.957260
 20
69.640750
 30
0.0
 10
277.071560
 20
69.725450
 30
0.0
 10
277.621890
 20
69.725450
 30
0.0
 10
277.736190
 20
69.640750
 30
0.0
 10
277.621890
 20
69.551850
 30
0.0
 10
277.422920
 20
69.551850
 30
0.0
 10
276.758290
 20
68.997280
 30
0.0
 10
277.634590
 20
68.133680
 30
0.0
 10
277.825090
 20
68.133680
 30
0.0
 10
277.939390
 20
68.048980
 30
0.0
 10
277.825090
 20
67.960080
 30
0.0
 10
277.270520
 20
67.960080
 30
0.0
 10
277.156220
 20
68.048980
 30
0.0
 10
277.270520
 20
68.133680
 30
0.0
 10
277.389060
 20
68.133680
 30
0.0
 10
276.627060
 20
68.887210
 30
0.0
  0
LWPOLYLINE
  5
16c
100
AcDbEntity
  8
Calque_1
 62
7
100
AcDbPolyline
 90
15
 70
1
 10
207.161440
 20
51.784620
 30
0.0
 10
207.536090
 20
51.714770
 30
0.0
 10
207.847240
 20
51.505220
 30
0.0
 10
208.056790
 20
51.198303
 30
0.0
 10
208.126640
 20
50.827890
 30
0.0
 10
208.055733
 20
50.466995
 30
0.0
 10
207.843010
 20
50.163250
 30
0.0
 10
207.161440
 20
49.892320
 30
0.0
 10
206.475640
 20
50.167490
 30
0.0
 10
206.266090
 20
50.473345
 30
0.0
 10
206.196240
 20
50.840590
 30
0.0
 10
206.266090
 20
51.201478
 30
0.0
 10
206.475640
 20
51.505220
 30
0.0
 10
206.788905
 20
51.714770
 30
0.0
 10
207.161440
 20
51.784620
 30
0.0
  0
LWPOLYLINE
  5
16d
100
AcDbEntity
  8
Calque_1
 62
7
100
AcDbPolyline
 90
9
 70
1
 10
207.161440
 20
51.611050
 30
0.0
 10
206.598410
 20
51.386690
 30
0.0
 10
206.369810
 20
50.840590
 30
0.0
 10
206.598410
 20
50.290250
 30
0.0
 10
207.161440
 20
50.065890
 30
0.0
 10
207.720240
 20
50.290250
 30
0.0
 10
207.953070
 20
50.827890
 30
0.0
 10
207.724470
 20
51.386690
 30
0.0
 10
207.161440
 20
51.611050
 30
0.0
  0
LWPOLYLINE
  5
16e
100
AcDbEntity
  8
Calque_1
 62
7
100
AcDbPolyline
 90
38
 70
1
 10
210.343250
 20
50.455350
 30
0.0
 10
210.199320
 20
50.696650
 30
0.0
 10
209.852190
 20
50.810950
 30
0.0
 10
209.445790
 20
50.874450
 30
0.0
 10
209.098650
 20
51.014150
 30
0.0
 10
208.954720
 20
51.306250
 30
0.0
 10
209.157920
 20
51.649150
 30
0.0
 10
209.678620
 20
51.784620
 30
0.0
 10
210.258590
 20
51.589890
 30
0.0
 10
210.258590
 20
51.606790
 30
0.0
 10
210.347490
 20
51.725320
 30
0.0
 10
210.432190
 20
51.606790
 30
0.0
 10
210.432190
 20
51.314690
 30
0.0
 10
210.347490
 20
51.200390
 30
0.0
 10
210.258590
 20
51.297790
 30
0.0
 10
210.089250
 20
51.526390
 30
0.0
 10
209.695550
 20
51.611090
 30
0.0
 10
209.301850
 20
51.517990
 30
0.0
 10
209.145220
 20
51.293620
 30
0.0
 10
209.289150
 20
51.098890
 30
0.0
 10
209.636290
 20
51.001490
 30
0.0
 10
210.042690
 20
50.933790
 30
0.0
 10
210.389820
 20
50.772920
 30
0.0
 10
210.533750
 20
50.451190
 30
0.0
 10
210.296690
 20
50.049020
 30
0.0
 10
209.704020
 20
49.892390
 30
0.0
 10
209.039390
 20
50.120990
 30
0.0
 10
209.039390
 20
50.074390
 30
0.0
 10
208.954690
 20
49.960090
 30
0.0
 10
208.865790
 20
50.074390
 30
0.0
 10
208.865790
 20
50.425760
 30
0.0
 10
208.954690
 20
50.540060
 30
0.0
 10
209.039390
 20
50.446960
 30
0.0
 10
209.039390
 20
50.417360
 30
0.0
 10
209.229890
 20
50.167600
 30
0.0
 10
209.691320
 20
50.066000
 30
0.0
 10
210.156990
 20
50.176060
 30
0.0
 10
210.343250
 20
50.455460
 30
0.0
  0
LWPOLYLINE
  5
16f
100
AcDbEntity
  8
Calque_1
 62
7
100
AcDbPolyline
 90
30
 70
1
 10
213.232960
 20
50.332590
 30
0.0
 10
213.160960
 20
50.222520
 30
0.0
 10
212.970460
 20
50.078590
 30
0.0
 10
212.665660
 20
49.947350
 30
0.0
 10
212.276190
 20
49.892350
 30
0.0
 10
211.590390
 20
50.154820
 30
0.0
 10
211.390365
 20
50.453265
 30
0.0
 10
211.323690
 20
50.823680
 30
0.0
 10
211.392483
 20
51.205740
 30
0.0
 10
211.598860
 20
51.513720
 30
0.0
 10
211.911070
 20
51.716918
 30
0.0
 10
212.297360
 20
51.784650
 30
0.0
 10
212.957760
 20
51.551820
 30
0.0
 10
212.957760
 20
51.606820
 30
0.0
 10
213.046660
 20
51.725350
 30
0.0
 10
213.131360
 20
51.606820
 30
0.0
 10
213.131360
 20
51.221590
 30
0.0
 10
213.046660
 20
51.107290
 30
0.0
 10
212.957760
 20
51.208890
 30
0.0
 10
212.746090
 20
51.492520
 30
0.0
 10
212.284660
 20
51.611050
 30
0.0
 10
211.713160
 20
51.390920
 30
0.0
 10
211.497260
 20
50.827890
 30
0.0
 10
211.717390
 20
50.277550
 30
0.0
 10
212.284660
 20
50.065890
 30
0.0
 10
212.713283
 20
50.142090
 30
0.0
 10
213.076290
 20
50.370690
 30
0.0
 10
213.152490
 20
50.412990
 30
0.0
 10
213.207490
 20
50.387590
 30
0.0
 10
213.232890
 20
50.332590
 30
0.0
  0
LWPOLYLINE
  5
170
100
AcDbEntity
  8
Calque_1
 62
7
100
AcDbPolyline
 90
26
 70
1
 10
216.485090
 20
51.949720
 30
0.0
 10
216.713690
 20
52.356120
 30
0.0
 10
217.272490
 20
52.576250
 30
0.0
 10
217.814360
 20
52.356120
 30
0.0
 10
218.051420
 20
51.848120
 30
0.0
 10
217.937120
 20
51.488290
 30
0.0
 10
217.441820
 20
50.963350
 30
0.0
 10
216.565520
 20
50.146320
 30
0.0
 10
216.565520
 20
50.133620
 30
0.0
 10
217.894790
 20
50.133620
 30
0.0
 10
217.894790
 20
50.286020
 30
0.0
 10
217.983690
 20
50.400320
 30
0.0
 10
218.068390
 20
50.286020
 30
0.0
 10
218.068390
 20
49.960050
 30
0.0
 10
216.400450
 20
49.960050
 30
0.0
 10
216.400450
 20
50.214050
 30
0.0
 10
217.399520
 20
51.153850
 30
0.0
 10
217.784750
 20
51.577190
 30
0.0
 10
217.877850
 20
51.852350
 30
0.0
 10
217.695810
 20
52.237590
 30
0.0
 10
217.272480
 20
52.402690
 30
0.0
 10
216.878780
 20
52.275690
 30
0.0
 10
216.654410
 20
51.958190
 30
0.0
 10
216.565510
 20
51.873490
 30
0.0
 10
216.510510
 20
51.894690
 30
0.0
 10
216.485110
 20
51.949690
 30
0.0
  0
LWPOLYLINE
  5
171
100
AcDbEntity
  8
Calque_1
 62
7
100
AcDbPolyline
 90
15
 70
1
 10
207.142400
 20
87.784620
 30
0.0
 10
207.517050
 20
87.714770
 30
0.0
 10
207.828200
 20
87.505220
 30
0.0
 10
208.037750
 20
87.198303
 30
0.0
 10
208.107600
 20
86.827890
 30
0.0
 10
208.036690
 20
86.466995
 30
0.0
 10
207.823960
 20
86.163250
 30
0.0
 10
207.142400
 20
85.892320
 30
0.0
 10
206.456600
 20
86.167490
 30
0.0
 10
206.247050
 20
86.473345
 30
0.0
 10
206.177200
 20
86.840590
 30
0.0
 10
206.247050
 20
87.201478
 30
0.0
 10
206.456600
 20
87.505220
 30
0.0
 10
206.769865
 20
87.714770
 30
0.0
 10
207.142400
 20
87.784620
 30
0.0
  0
LWPOLYLINE
  5
172
100
AcDbEntity
  8
Calque_1
 62
7
100
AcDbPolyline
 90
9
 70
1
 10
207.142400
 20
87.611050
 30
0.0
 10
206.579360
 20
87.386690
 30
0.0
 10
206.350760
 20
86.840590
 30
0.0
 10
206.579360
 20
86.290250
 30
0.0
 10
207.142400
 20
86.065890
 30
0.0
 10
207.701200
 20
86.290250
 30
0.0
 10
207.934030
 20
86.827890
 30
0.0
 10
207.705430
 20
87.386690
 30
0.0
 10
207.142400
 20
87.611050
 30
0.0
  0
LWPOLYLINE
  5
173
100
AcDbEntity
  8
Calque_1
 62
7
100
AcDbPolyline
 90
38
 70
1
 10
210.324210
 20
86.455350
 30
0.0
 10
210.180280
 20
86.696650
 30
0.0
 10
209.833140
 20
86.810950
 30
0.0
 10
209.426740
 20
86.874450
 30
0.0
 10
209.079610
 20
87.014150
 30
0.0
 10
208.935680
 20
87.306250
 30
0.0
 10
209.138880
 20
87.649150
 30
0.0
 10
209.659580
 20
87.784620
 30
0.0
 10
210.239540
 20
87.589890
 30
0.0
 10
210.239540
 20
87.606790
 30
0.0
 10
210.328440
 20
87.725320
 30
0.0
 10
210.413140
 20
87.606790
 30
0.0
 10
210.413140
 20
87.314690
 30
0.0
 10
210.328440
 20
87.200390
 30
0.0
 10
210.239540
 20
87.297790
 30
0.0
 10
210.070210
 20
87.526390
 30
0.0
 10
209.676510
 20
87.611090
 30
0.0
 10
209.282810
 20
87.517990
 30
0.0
 10
209.126180
 20
87.293620
 30
0.0
 10
209.270110
 20
87.098890
 30
0.0
 10
209.617240
 20
87.001490
 30
0.0
 10
210.023640
 20
86.933790
 30
0.0
 10
210.370780
 20
86.772920
 30
0.0
 10
210.514710
 20
86.451190
 30
0.0
 10
210.277640
 20
86.049020
 30
0.0
 10
209.684980
 20
85.892390
 30
0.0
 10
209.020340
 20
86.120990
 30
0.0
 10
209.020340
 20
86.074390
 30
0.0
 10
208.935640
 20
85.960090
 30
0.0
 10
208.846740
 20
86.074390
 30
0.0
 10
208.846740
 20
86.425760
 30
0.0
 10
208.935640
 20
86.540060
 30
0.0
 10
209.020340
 20
86.446960
 30
0.0
 10
209.020340
 20
86.417360
 30
0.0
 10
209.210840
 20
86.167600
 30
0.0
 10
209.672280
 20
86.066000
 30
0.0
 10
210.137940
 20
86.176060
 30
0.0
 10
210.324210
 20
86.455460
 30
0.0
  0
LWPOLYLINE
  5
174
100
AcDbEntity
  8
Calque_1
 62
7
100
AcDbPolyline
 90
30
 70
1
 10
213.213920
 20
86.332590
 30
0.0
 10
213.141920
 20
86.222520
 30
0.0
 10
212.951420
 20
86.078590
 30
0.0
 10
212.646620
 20
85.947350
 30
0.0
 10
212.257150
 20
85.892350
 30
0.0
 10
211.571350
 20
86.154820
 30
0.0
 10
211.371325
 20
86.453265
 30
0.0
 10
211.304650
 20
86.823680
 30
0.0
 10
211.373443
 20
87.205740
 30
0.0
 10
211.579820
 20
87.513720
 30
0.0
 10
211.892025
 20
87.716918
 30
0.0
 10
212.278320
 20
87.784650
 30
0.0
 10
212.938720
 20
87.551820
 30
0.0
 10
212.938720
 20
87.606820
 30
0.0
 10
213.027620
 20
87.725350
 30
0.0
 10
213.112320
 20
87.606820
 30
0.0
 10
213.112320
 20
87.221590
 30
0.0
 10
213.027620
 20
87.107290
 30
0.0
 10
212.938720
 20
87.208890
 30
0.0
 10
212.727050
 20
87.492520
 30
0.0
 10
212.265620
 20
87.611050
 30
0.0
 10
211.694120
 20
87.390920
 30
0.0
 10
211.478220
 20
86.827890
 30
0.0
 10
211.698350
 20
86.277550
 30
0.0
 10
212.265620
 20
86.065890
 30
0.0
 10
212.694243
 20
86.142090
 30
0.0
 10
213.057250
 20
86.370690
 30
0.0
 10
213.133450
 20
86.412990
 30
0.0
 10
213.188450
 20
86.387590
 30
0.0
 10
213.213850
 20
86.332590
 30
0.0
  0
LWPOLYLINE
  5
175
100
AcDbEntity
  8
Calque_1
 62
7
100
AcDbPolyline
 90
16
 70
1
 10
217.384680
 20
88.550850
 30
0.0
 10
217.384680
 20
86.133620
 30
0.0
 10
217.973110
 20
86.133620
 30
0.0
 10
218.087410
 20
86.048920
 30
0.0
 10
217.973110
 20
85.960020
 30
0.0
 10
216.622680
 20
85.960020
 30
0.0
 10
216.504150
 20
86.048920
 30
0.0
 10
216.622680
 20
86.133620
 30
0.0
 10
217.211110
 20
86.133620
 30
0.0
 10
217.211110
 20
88.322250
 30
0.0
 10
216.732750
 20
87.843890
 30
0.0
 10
216.643850
 20
87.809990
 30
0.0
 10
216.584550
 20
87.835390
 30
0.0
 10
216.563350
 20
87.907390
 30
0.0
 10
216.609950
 20
87.992090
 30
0.0
 10
217.168750
 20
88.550890
 30
0.0
  0
LWPOLYLINE
  5
176
100
AcDbEntity
  8
Calque_1
 62
7
100
AcDbPolyline
 90
25
 70
1
 10
37.920493
 20
87.725350
 30
0.0
 10
38.851826
 20
87.725350
 30
0.0
 10
38.966126
 20
87.640650
 30
0.0
 10
38.851826
 20
87.551750
 30
0.0
 10
37.920493
 20
87.551750
 30
0.0
 10
37.920493
 20
86.421450
 30
0.0
 10
38.047493
 20
86.163210
 30
0.0
 10
38.394626
 20
86.065810
 30
0.0
 10
38.771393
 20
86.112410
 30
0.0
 10
39.097360
 20
86.235180
 30
0.0
 10
39.165090
 20
86.260580
 30
0.0
 10
39.220120
 20
86.235180
 30
0.0
 10
39.245520
 20
86.175880
 30
0.0
 10
38.957654
 20
85.985380
 30
0.0
 10
38.403087
 20
85.892280
 30
0.0
 10
37.924720
 20
86.031980
 30
0.0
 10
37.746920
 20
86.412980
 30
0.0
 10
37.746920
 20
87.551750
 30
0.0
 10
37.433660
 20
87.551750
 30
0.0
 10
37.315126
 20
87.640650
 30
0.0
 10
37.433660
 20
87.725350
 30
0.0
 10
37.746926
 20
87.725350
 30
0.0
 10
37.746926
 20
88.229120
 30
0.0
 10
37.835826
 20
88.343420
 30
0.0
 10
37.920496
 20
88.229120
 30
0.0
  0
LWPOLYLINE
  5
177
100
AcDbEntity
  8
Calque_1
 62
7
100
AcDbPolyline
 90
25
 70
1
 10
41.529873
 20
85.960050
 30
0.0
 10
41.529873
 20
86.239450
 30
0.0
 10
41.159456
 20
85.979103
 30
0.0
 10
40.759406
 20
85.892320
 30
0.0
 10
40.348773
 20
86.044720
 30
0.0
 10
40.196373
 20
86.446890
 30
0.0
 10
40.196373
 20
87.551790
 30
0.0
 10
39.967773
 20
87.551790
 30
0.0
 10
39.853473
 20
87.640690
 30
0.0
 10
39.967773
 20
87.725390
 30
0.0
 10
40.369939
 20
87.725390
 30
0.0
 10
40.369939
 20
86.446930
 30
0.0
 10
40.480006
 20
86.175990
 30
0.0
 10
40.755173
 20
86.065930
 30
0.0
 10
41.160515
 20
86.161180
 30
0.0
 10
41.529873
 20
86.446930
 30
0.0
 10
41.529873
 20
87.551830
 30
0.0
 10
41.216606
 20
87.551830
 30
0.0
 10
41.098073
 20
87.640730
 30
0.0
 10
41.216606
 20
87.725430
 30
0.0
 10
41.703439
 20
87.725430
 30
0.0
 10
41.703439
 20
86.133700
 30
0.0
 10
41.847373
 20
86.133700
 30
0.0
 10
41.961673
 20
86.049000
 30
0.0
 10
41.847373
 20
85.960100
 30
0.0
  0
LWPOLYLINE
  5
178
100
AcDbEntity
  8
Calque_1
 62
7
100
AcDbPolyline
 90
37
 70
1
 10
43.560219
 20
87.611050
 30
0.0
 10
43.412052
 20
87.594150
 30
0.0
 10
43.280819
 20
87.547550
 30
0.0
 10
43.179219
 20
87.488250
 30
0.0
 10
43.086089
 20
87.412050
 30
0.0
 10
43.018359
 20
87.335850
 30
0.0
 10
42.959089
 20
87.259650
 30
0.0
 10
42.916759
 20
87.204650
 30
0.0
 10
42.916759
 20
86.133620
 30
0.0
 10
43.107259
 20
86.133620
 30
0.0
 10
43.221559
 20
86.048920
 30
0.0
 10
43.107259
 20
85.960020
 30
0.0
 10
42.552693
 20
85.960020
 30
0.0
 10
42.434159
 20
86.048920
 30
0.0
 10
42.552693
 20
86.133620
 30
0.0
 10
42.743193
 20
86.133620
 30
0.0
 10
42.743193
 20
87.551790
 30
0.0
 10
42.599259
 20
87.551790
 30
0.0
 10
42.484959
 20
87.640690
 30
0.0
 10
42.599259
 20
87.725390
 30
0.0
 10
42.916759
 20
87.725390
 30
0.0
 10
42.916759
 20
87.433290
 30
0.0
 10
43.238493
 20
87.708460
 30
0.0
 10
43.577159
 20
87.784660
 30
0.0
 10
44.051293
 20
87.619560
 30
0.0
 10
44.241792
 20
87.208930
 30
0.0
 10
44.241792
 20
86.133660
 30
0.0
 10
44.385726
 20
86.133660
 30
0.0
 10
44.500026
 20
86.048960
 30
0.0
 10
44.385726
 20
85.960060
 30
0.0
 10
43.924293
 20
85.960060
 30
0.0
 10
43.809993
 20
86.048960
 30
0.0
 10
43.924293
 20
86.133660
 30
0.0
 10
44.068226
 20
86.133660
 30
0.0
 10
44.068226
 20
87.179290
 30
0.0
 10
43.928526
 20
87.484090
 30
0.0
 10
43.560226
 20
87.611090
 30
0.0
  0
LWPOLYLINE
  5
179
100
AcDbEntity
  8
Calque_1
 62
7
100
AcDbPolyline
 90
22
 70
1
 10
46.949465
 20
86.802490
 30
0.0
 10
45.188399
 20
86.802490
 30
0.0
 10
45.467799
 20
86.264850
 30
0.0
 10
46.043532
 20
86.065890
 30
0.0
 10
46.449932
 20
86.129390
 30
0.0
 10
46.784365
 20
86.294490
 30
0.0
 10
46.852095
 20
86.324090
 30
0.0
 10
46.907125
 20
86.298690
 30
0.0
 10
46.932525
 20
86.239390
 30
0.0
 10
46.627725
 20
86.010790
 30
0.0
 10
46.039291
 20
85.892260
 30
0.0
 10
45.643475
 20
85.964228
 30
0.0
 10
45.311158
 20
86.180130
 30
0.0
 10
45.088908
 20
86.498685
 30
0.0
 10
45.014825
 20
86.878630
 30
0.0
 10
45.084675
 20
87.232110
 30
0.0
 10
45.294225
 20
87.522090
 30
0.0
 10
45.980025
 20
87.784560
 30
0.0
 10
46.368433
 20
87.716828
 30
0.0
 10
46.678525
 20
87.513630
 30
0.0
 10
46.881725
 20
87.202480
 30
0.0
 10
46.949458
 20
86.802430
 30
0.0
  0
LWPOLYLINE
  5
17a
100
AcDbEntity
  8
Calque_1
 62
7
100
AcDbPolyline
 90
6
 70
1
 10
45.188399
 20
86.976050
 30
0.0
 10
46.771665
 20
86.976050
 30
0.0
 10
46.504965
 20
87.437490
 30
0.0
 10
45.980032
 20
87.611050
 30
0.0
 10
45.459332
 20
87.437490
 30
0.0
 10
45.188399
 20
86.976050
 30
0.0
  0
LWPOLYLINE
  5
17b
100
AcDbEntity
  8
Calque_1
 62
7
100
AcDbPolyline
 90
39
 70
1
 10
42.921828
 20
33.725350
 30
0.0
 10
42.921828
 20
33.505220
 30
0.0
 10
43.129261
 20
33.721120
 30
0.0
 10
43.366328
 20
33.784620
 30
0.0
 10
43.604453
 20
33.709478
 30
0.0
 10
43.776961
 20
33.484050
 30
0.0
 10
44.255328
 20
33.784620
 30
0.0
 10
44.568594
 20
33.649150
 30
0.0
 10
44.699828
 20
33.327420
 30
0.0
 10
44.699828
 20
32.133620
 30
0.0
 10
44.843761
 20
32.133620
 30
0.0
 10
44.958061
 20
32.048920
 30
0.0
 10
44.843761
 20
31.960020
 30
0.0
 10
44.530494
 20
31.960020
 30
0.0
 10
44.530494
 20
33.310460
 30
0.0
 10
44.445824
 20
33.517890
 30
0.0
 10
44.251090
 20
33.610990
 30
0.0
 10
43.810824
 20
33.263860
 30
0.0
 10
43.810824
 20
32.133560
 30
0.0
 10
43.954757
 20
32.133560
 30
0.0
 10
44.069057
 20
32.048860
 30
0.0
 10
43.954757
 20
31.959960
 30
0.0
 10
43.641490
 20
31.959960
 30
0.0
 10
43.641490
 20
33.297700
 30
0.0
 10
43.556820
 20
33.513600
 30
0.0
 10
43.366320
 20
33.611000
 30
0.0
 10
42.921820
 20
33.263870
 30
0.0
 10
42.921820
 20
32.133570
 30
0.0
 10
43.065753
 20
32.133570
 30
0.0
 10
43.180053
 20
32.048870
 30
0.0
 10
43.065753
 20
31.959970
 30
0.0
 10
42.604320
 20
31.959970
 30
0.0
 10
42.494253
 20
32.048870
 30
0.0
 10
42.608553
 20
32.133570
 30
0.0
 10
42.752486
 20
32.133570
 30
0.0
 10
42.752486
 20
33.551740
 30
0.0
 10
42.608553
 20
33.551740
 30
0.0
 10
42.494253
 20
33.640640
 30
0.0
 10
42.608553
 20
33.725340
 30
0.0
  0
LWPOLYLINE
  5
17c
100
AcDbEntity
  8
Calque_1
 62
7
100
AcDbPolyline
 90
15
 70
1
 10
46.256041
 20
33.784620
 30
0.0
 10
46.630691
 20
33.714770
 30
0.0
 10
46.941841
 20
33.505220
 30
0.0
 10
47.151390
 20
33.198303
 30
0.0
 10
47.221240
 20
32.827890
 30
0.0
 10
47.150332
 20
32.466995
 30
0.0
 10
46.937607
 20
32.163250
 30
0.0
 10
46.256041
 20
31.892320
 30
0.0
 10
45.570241
 20
32.167490
 30
0.0
 10
45.360691
 20
32.473345
 30
0.0
 10
45.290841
 20
32.840590
 30
0.0
 10
45.360691
 20
33.201478
 30
0.0
 10
45.570241
 20
33.505220
 30
0.0
 10
45.883508
 20
33.714770
 30
0.0
 10
46.256041
 20
33.784620
 30
0.0
  0
LWPOLYLINE
  5
17d
100
AcDbEntity
  8
Calque_1
 62
7
100
AcDbPolyline
 90
9
 70
1
 10
46.256041
 20
33.611050
 30
0.0
 10
45.693007
 20
33.386690
 30
0.0
 10
45.464407
 20
32.840590
 30
0.0
 10
45.693007
 20
32.290250
 30
0.0
 10
46.256041
 20
32.065890
 30
0.0
 10
46.814841
 20
32.290250
 30
0.0
 10
47.047674
 20
32.827890
 30
0.0
 10
46.819074
 20
33.386690
 30
0.0
 10
46.256041
 20
33.611050
 30
0.0
  0
LWPOLYLINE
  5
17e
100
AcDbEntity
  8
Calque_1
 62
7
100
AcDbPolyline
 90
19
 70
1
 10
49.649520
 20
34.516990
 30
0.0
 10
49.649520
 20
32.133620
 30
0.0
 10
49.878120
 20
32.133620
 30
0.0
 10
49.992420
 20
32.048920
 30
0.0
 10
49.878120
 20
31.960020
 30
0.0
 10
49.475953
 20
31.960020
 30
0.0
 10
49.475953
 20
32.336790
 30
0.0
 10
49.133054
 20
32.003415
 30
0.0
 10
48.705487
 20
31.892290
 30
0.0
 10
48.057787
 20
32.171690
 30
0.0
 10
47.791087
 20
32.840560
 30
0.0
 10
48.057787
 20
33.505190
 30
0.0
 10
48.705487
 20
33.784590
 30
0.0
 10
49.130937
 20
33.674523
 30
0.0
 10
49.475953
 20
33.344320
 30
0.0
 10
49.475953
 20
34.343390
 30
0.0
 10
49.247353
 20
34.343390
 30
0.0
 10
49.133053
 20
34.432290
 30
0.0
 10
49.247353
 20
34.516990
 30
0.0
  0
LWPOLYLINE
  5
17f
100
AcDbEntity
  8
Calque_1
 62
7
100
AcDbPolyline
 90
9
 70
1
 10
48.718187
 20
33.611050
 30
0.0
 10
48.184787
 20
33.386690
 30
0.0
 10
47.964654
 20
32.840590
 30
0.0
 10
48.184787
 20
32.290250
 30
0.0
 10
48.722420
 20
32.065890
 30
0.0
 10
49.255820
 20
32.290250
 30
0.0
 10
49.475953
 20
32.832120
 30
0.0
 10
49.255820
 20
33.386690
 30
0.0
 10
48.718187
 20
33.611050
 30
0.0
  0
LWPOLYLINE
  5
180
100
AcDbEntity
  8
Calque_1
 62
7
100
AcDbPolyline
 90
25
 70
1
 10
51.921166
 20
31.960050
 30
0.0
 10
51.921166
 20
32.239450
 30
0.0
 10
51.550750
 20
31.979103
 30
0.0
 10
51.150700
 20
31.892320
 30
0.0
 10
50.740066
 20
32.044720
 30
0.0
 10
50.587666
 20
32.446890
 30
0.0
 10
50.587666
 20
33.551790
 30
0.0
 10
50.359067
 20
33.551790
 30
0.0
 10
50.244767
 20
33.640690
 30
0.0
 10
50.359067
 20
33.725390
 30
0.0
 10
50.761233
 20
33.725390
 30
0.0
 10
50.761233
 20
32.446930
 30
0.0
 10
50.871300
 20
32.175990
 30
0.0
 10
51.146466
 20
32.065930
 30
0.0
 10
51.551808
 20
32.161180
 30
0.0
 10
51.921166
 20
32.446930
 30
0.0
 10
51.921166
 20
33.551830
 30
0.0
 10
51.607900
 20
33.551830
 30
0.0
 10
51.489366
 20
33.640730
 30
0.0
 10
51.607900
 20
33.725430
 30
0.0
 10
52.094733
 20
33.725430
 30
0.0
 10
52.094733
 20
32.133700
 30
0.0
 10
52.238666
 20
32.133700
 30
0.0
 10
52.352966
 20
32.049000
 30
0.0
 10
52.238666
 20
31.960100
 30
0.0
  0
LWPOLYLINE
  5
181
100
AcDbEntity
  8
Calque_1
 62
7
100
AcDbPolyline
 90
13
 70
1
 10
53.955746
 20
34.516990
 30
0.0
 10
53.955746
 20
32.133620
 30
0.0
 10
54.633079
 20
32.133620
 30
0.0
 10
54.751613
 20
32.048920
 30
0.0
 10
54.633079
 20
31.960020
 30
0.0
 10
53.104846
 20
31.960020
 30
0.0
 10
52.990546
 20
32.048920
 30
0.0
 10
53.104846
 20
32.133620
 30
0.0
 10
53.782179
 20
32.133620
 30
0.0
 10
53.782179
 20
34.343420
 30
0.0
 10
53.286879
 20
34.343420
 30
0.0
 10
53.172579
 20
34.432320
 30
0.0
 10
53.286879
 20
34.517020
 30
0.0
  0
LWPOLYLINE
  5
182
100
AcDbEntity
  8
Calque_1
 62
7
100
AcDbPolyline
 90
25
 70
1
 10
55.668592
 20
33.560250
 30
0.0
 10
55.956459
 20
33.716890
 30
0.0
 10
56.405192
 20
33.784590
 30
0.0
 10
56.892026
 20
33.636420
 30
0.0
 10
57.086759
 20
33.263890
 30
0.0
 10
57.086759
 20
32.133590
 30
0.0
 10
57.315359
 20
32.133590
 30
0.0
 10
57.429659
 20
32.048890
 30
0.0
 10
57.315359
 20
31.959990
 30
0.0
 10
56.913192
 20
31.959990
 30
0.0
 10
56.913192
 20
32.243630
 30
0.0
 10
56.522668
 20
31.980103
 30
0.0
 10
56.104626
 20
31.892260
 30
0.0
 10
55.626259
 20
32.040430
 30
0.0
 10
55.444226
 20
32.434130
 30
0.0
 10
55.689759
 20
32.878630
 30
0.0
 10
56.337459
 20
33.052190
 30
0.0
 10
56.913192
 20
32.963290
 30
0.0
 10
56.913192
 20
33.263860
 30
0.0
 10
56.769259
 20
33.513630
 30
0.0
 10
56.392492
 20
33.611030
 30
0.0
 10
55.990326
 20
33.543330
 30
0.0
 10
55.749026
 20
33.475630
 30
0.0
 10
55.689756
 20
33.501030
 30
0.0
 10
55.668586
 20
33.560330
 30
0.0
  0
LWPOLYLINE
  5
183
100
AcDbEntity
  8
Calque_1
 62
7
100
AcDbPolyline
 90
9
 70
1
 10
56.913192
 20
32.434190
 30
0.0
 10
56.913192
 20
32.815190
 30
0.0
 10
56.371326
 20
32.878690
 30
0.0
 10
55.825226
 20
32.751690
 30
0.0
 10
55.617792
 20
32.429950
 30
0.0
 10
55.749026
 20
32.163250
 30
0.0
 10
56.100392
 20
32.065850
 30
0.0
 10
56.511026
 20
32.150550
 30
0.0
 10
56.913192
 20
32.434190
 30
0.0
  0
LWPOLYLINE
  5
184
100
AcDbEntity
  8
Calque_1
 62
7
100
AcDbPolyline
 90
25
 70
1
 10
58.465172
 20
33.725350
 30
0.0
 10
59.396505
 20
33.725350
 30
0.0
 10
59.510805
 20
33.640650
 30
0.0
 10
59.396505
 20
33.551750
 30
0.0
 10
58.465172
 20
33.551750
 30
0.0
 10
58.465172
 20
32.421450
 30
0.0
 10
58.592172
 20
32.163210
 30
0.0
 10
58.939305
 20
32.065810
 30
0.0
 10
59.316072
 20
32.112410
 30
0.0
 10
59.642039
 20
32.235180
 30
0.0
 10
59.709769
 20
32.260580
 30
0.0
 10
59.764799
 20
32.235180
 30
0.0
 10
59.790199
 20
32.175880
 30
0.0
 10
59.502333
 20
31.985380
 30
0.0
 10
58.947766
 20
31.892280
 30
0.0
 10
58.469399
 20
32.031980
 30
0.0
 10
58.291599
 20
32.412980
 30
0.0
 10
58.291599
 20
33.551750
 30
0.0
 10
57.978333
 20
33.551750
 30
0.0
 10
57.859799
 20
33.640650
 30
0.0
 10
57.978333
 20
33.725350
 30
0.0
 10
58.291599
 20
33.725350
 30
0.0
 10
58.291599
 20
34.229120
 30
0.0
 10
58.380499
 20
34.343420
 30
0.0
 10
58.465169
 20
34.229120
 30
0.0
  0
LWPOLYLINE
  5
185
100
AcDbEntity
  8
Calque_1
 62
7
100
AcDbPolyline
 90
13
 70
1
 10
61.570786
 20
33.725350
 30
0.0
 10
61.570786
 20
32.133620
 30
0.0
 10
62.248119
 20
32.133620
 30
0.0
 10
62.366653
 20
32.048920
 30
0.0
 10
62.248119
 20
31.960020
 30
0.0
 10
60.719886
 20
31.960020
 30
0.0
 10
60.605586
 20
32.048920
 30
0.0
 10
60.719886
 20
32.133620
 30
0.0
 10
61.397219
 20
32.133620
 30
0.0
 10
61.397219
 20
33.551790
 30
0.0
 10
60.897686
 20
33.551790
 30
0.0
 10
60.783386
 20
33.640690
 30
0.0
 10
60.897686
 20
33.725390
 30
0.0
  0
LWPOLYLINE
  5
186
100
AcDbEntity
  8
Calque_1
 62
7
100
AcDbPolyline
 90
4
 70
1
 10
61.562286
 20
34.601650
 30
0.0
 10
61.562286
 20
34.161390
 30
0.0
 10
61.312520
 20
34.161390
 30
0.0
 10
61.312520
 20
34.601650
 30
0.0
  0
LWPOLYLINE
  5
187
100
AcDbEntity
  8
Calque_1
 62
7
100
AcDbPolyline
 90
15
 70
1
 10
64.024465
 20
33.784620
 30
0.0
 10
64.399115
 20
33.714770
 30
0.0
 10
64.710265
 20
33.505220
 30
0.0
 10
64.919815
 20
33.198303
 30
0.0
 10
64.989665
 20
32.827890
 30
0.0
 10
64.918757
 20
32.466995
 30
0.0
 10
64.706031
 20
32.163250
 30
0.0
 10
64.024465
 20
31.892320
 30
0.0
 10
63.338665
 20
32.167490
 30
0.0
 10
63.129115
 20
32.473345
 30
0.0
 10
63.059265
 20
32.840590
 30
0.0
 10
63.129115
 20
33.201478
 30
0.0
 10
63.338665
 20
33.505220
 30
0.0
 10
63.651932
 20
33.714770
 30
0.0
 10
64.024465
 20
33.784620
 30
0.0
  0
LWPOLYLINE
  5
188
100
AcDbEntity
  8
Calque_1
 62
7
100
AcDbPolyline
 90
9
 70
1
 10
64.024465
 20
33.611050
 30
0.0
 10
63.461431
 20
33.386690
 30
0.0
 10
63.232831
 20
32.840590
 30
0.0
 10
63.461431
 20
32.290250
 30
0.0
 10
64.024465
 20
32.065890
 30
0.0
 10
64.583265
 20
32.290250
 30
0.0
 10
64.816098
 20
32.827890
 30
0.0
 10
64.587498
 20
33.386690
 30
0.0
 10
64.024465
 20
33.611050
 30
0.0
  0
LWPOLYLINE
  5
189
100
AcDbEntity
  8
Calque_1
 62
7
100
AcDbPolyline
 90
37
 70
1
 10
66.643243
 20
33.611050
 30
0.0
 10
66.495077
 20
33.594150
 30
0.0
 10
66.363843
 20
33.547550
 30
0.0
 10
66.262243
 20
33.488250
 30
0.0
 10
66.169113
 20
33.412050
 30
0.0
 10
66.101383
 20
33.335850
 30
0.0
 10
66.042113
 20
33.259650
 30
0.0
 10
65.999783
 20
33.204650
 30
0.0
 10
65.999783
 20
32.133620
 30
0.0
 10
66.190283
 20
32.133620
 30
0.0
 10
66.304583
 20
32.048920
 30
0.0
 10
66.190283
 20
31.960020
 30
0.0
 10
65.635710
 20
31.960020
 30
0.0
 10
65.517177
 20
32.048920
 30
0.0
 10
65.635710
 20
32.133620
 30
0.0
 10
65.826210
 20
32.133620
 30
0.0
 10
65.826210
 20
33.551790
 30
0.0
 10
65.682277
 20
33.551790
 30
0.0
 10
65.567977
 20
33.640690
 30
0.0
 10
65.682277
 20
33.725390
 30
0.0
 10
65.999777
 20
33.725390
 30
0.0
 10
65.999777
 20
33.433290
 30
0.0
 10
66.321510
 20
33.708460
 30
0.0
 10
66.660177
 20
33.784660
 30
0.0
 10
67.134310
 20
33.619560
 30
0.0
 10
67.324810
 20
33.208930
 30
0.0
 10
67.324810
 20
32.133660
 30
0.0
 10
67.468743
 20
32.133660
 30
0.0
 10
67.583043
 20
32.048960
 30
0.0
 10
67.468743
 20
31.960060
 30
0.0
 10
67.007310
 20
31.960060
 30
0.0
 10
66.893010
 20
32.048960
 30
0.0
 10
67.007310
 20
32.133660
 30
0.0
 10
67.151243
 20
32.133660
 30
0.0
 10
67.151243
 20
33.179290
 30
0.0
 10
67.011543
 20
33.484090
 30
0.0
 10
66.643243
 20
33.611090
 30
0.0
  0
LWPOLYLINE
  5
18a
100
AcDbEntity
  8
Calque_1
 62
7
100
AcDbPolyline
 90
39
 70
1
 10
70.843638
 20
33.725350
 30
0.0
 10
70.843638
 20
33.505220
 30
0.0
 10
71.051071
 20
33.721120
 30
0.0
 10
71.288138
 20
33.784620
 30
0.0
 10
71.526263
 20
33.709478
 30
0.0
 10
71.698771
 20
33.484050
 30
0.0
 10
72.177138
 20
33.784620
 30
0.0
 10
72.490404
 20
33.649150
 30
0.0
 10
72.621638
 20
33.327420
 30
0.0
 10
72.621638
 20
32.133620
 30
0.0
 10
72.765571
 20
32.133620
 30
0.0
 10
72.879871
 20
32.048920
 30
0.0
 10
72.765571
 20
31.960020
 30
0.0
 10
72.452304
 20
31.960020
 30
0.0
 10
72.452304
 20
33.310460
 30
0.0
 10
72.367634
 20
33.517890
 30
0.0
 10
72.172900
 20
33.610990
 30
0.0
 10
71.732634
 20
33.263860
 30
0.0
 10
71.732634
 20
32.133560
 30
0.0
 10
71.876567
 20
32.133560
 30
0.0
 10
71.990867
 20
32.048860
 30
0.0
 10
71.876567
 20
31.959960
 30
0.0
 10
71.563300
 20
31.959960
 30
0.0
 10
71.563300
 20
33.297700
 30
0.0
 10
71.478630
 20
33.513600
 30
0.0
 10
71.288130
 20
33.611000
 30
0.0
 10
70.843630
 20
33.263870
 30
0.0
 10
70.843630
 20
32.133570
 30
0.0
 10
70.987563
 20
32.133570
 30
0.0
 10
71.101863
 20
32.048870
 30
0.0
 10
70.987563
 20
31.959970
 30
0.0
 10
70.526130
 20
31.959970
 30
0.0
 10
70.416063
 20
32.048870
 30
0.0
 10
70.530363
 20
32.133570
 30
0.0
 10
70.674296
 20
32.133570
 30
0.0
 10
70.674296
 20
33.551740
 30
0.0
 10
70.530363
 20
33.551740
 30
0.0
 10
70.416063
 20
33.640640
 30
0.0
 10
70.530363
 20
33.725340
 30
0.0
  0
LWPOLYLINE
  5
18b
100
AcDbEntity
  8
Calque_1
 62
7
100
AcDbPolyline
 90
13
 70
1
 10
74.262516
 20
33.725350
 30
0.0
 10
74.262516
 20
32.133620
 30
0.0
 10
74.939850
 20
32.133620
 30
0.0
 10
75.058383
 20
32.048920
 30
0.0
 10
74.939850
 20
31.960020
 30
0.0
 10
73.411616
 20
31.960020
 30
0.0
 10
73.297316
 20
32.048920
 30
0.0
 10
73.411616
 20
32.133620
 30
0.0
 10
74.088950
 20
32.133620
 30
0.0
 10
74.088950
 20
33.551790
 30
0.0
 10
73.589416
 20
33.551790
 30
0.0
 10
73.475116
 20
33.640690
 30
0.0
 10
73.589416
 20
33.725390
 30
0.0
  0
LWPOLYLINE
  5
18c
100
AcDbEntity
  8
Calque_1
 62
7
100
AcDbPolyline
 90
4
 70
1
 10
74.254016
 20
34.601650
 30
0.0
 10
74.254016
 20
34.161390
 30
0.0
 10
74.004249
 20
34.161390
 30
0.0
 10
74.004249
 20
34.601650
 30
0.0
  0
LWPOLYLINE
  5
18d
100
AcDbEntity
  8
Calque_1
 62
7
100
AcDbPolyline
 90
36
 70
1
 10
76.838962
 20
32.887150
 30
0.0
 10
77.617895
 20
32.133620
 30
0.0
 10
77.655995
 20
32.133620
 30
0.0
 10
77.770295
 20
32.048920
 30
0.0
 10
77.655995
 20
31.960020
 30
0.0
 10
77.097195
 20
31.960020
 30
0.0
 10
76.982895
 20
32.048920
 30
0.0
 10
77.097195
 20
32.133620
 30
0.0
 10
77.372362
 20
32.133620
 30
0.0
 10
76.716195
 20
32.764390
 30
0.0
 10
76.051562
 20
32.133620
 30
0.0
 10
76.339428
 20
32.133620
 30
0.0
 10
76.453728
 20
32.048920
 30
0.0
 10
76.339428
 20
31.960020
 30
0.0
 10
75.776395
 20
31.960020
 30
0.0
 10
75.662095
 20
32.048920
 30
0.0
 10
75.776395
 20
32.133620
 30
0.0
 10
75.814495
 20
32.133620
 30
0.0
 10
76.593428
 20
32.887150
 30
0.0
 10
75.903395
 20
33.551790
 30
0.0
 10
75.873765
 20
33.551790
 30
0.0
 10
75.759465
 20
33.640690
 30
0.0
 10
75.873765
 20
33.725390
 30
0.0
 10
76.343665
 20
33.725390
 30
0.0
 10
76.457965
 20
33.640690
 30
0.0
 10
76.343665
 20
33.551790
 30
0.0
 10
76.148931
 20
33.551790
 30
0.0
 10
76.716198
 20
33.001450
 30
0.0
 10
77.296165
 20
33.551790
 30
0.0
 10
77.092965
 20
33.551790
 30
0.0
 10
76.978665
 20
33.640690
 30
0.0
 10
77.092965
 20
33.725390
 30
0.0
 10
77.558631
 20
33.725390
 30
0.0
 10
77.672931
 20
33.640690
 30
0.0
 10
77.558631
 20
33.551790
 30
0.0
 10
77.529001
 20
33.551790
 30
0.0
  0
LWPOLYLINE
  5
18e
100
AcDbEntity
  8
Calque_1
 62
7
100
AcDbPolyline
 90
25
 70
1
 10
95.978461
 20
15.416320
 30
0.0
 10
95.847228
 20
15.505220
 30
0.0
 10
95.631328
 20
15.594120
 30
0.0
 10
95.330761
 20
15.492520
 30
0.0
 10
94.826995
 20
15.069190
 30
0.0
 10
94.826995
 20
14.133620
 30
0.0
 10
95.584761
 20
14.133620
 30
0.0
 10
95.699061
 20
14.044720
 30
0.0
 10
95.584761
 20
13.960020
 30
0.0
 10
94.247028
 20
13.960020
 30
0.0
 10
94.132728
 20
14.048920
 30
0.0
 10
94.247028
 20
14.133620
 30
0.0
 10
94.653428
 20
14.133620
 30
0.0
 10
94.653428
 20
15.551790
 30
0.0
 10
94.335928
 20
15.551790
 30
0.0
 10
94.221628
 20
15.640690
 30
0.0
 10
94.335928
 20
15.725390
 30
0.0
 10
94.826995
 20
15.725390
 30
0.0
 10
94.826995
 20
15.293590
 30
0.0
 10
95.301128
 20
15.661890
 30
0.0
 10
95.644028
 20
15.767730
 30
0.0
 10
95.940361
 20
15.666130
 30
0.0
 10
96.067361
 20
15.505260
 30
0.0
 10
96.041961
 20
15.441760
 30
0.0
 10
95.978461
 20
15.416360
 30
0.0
  0
LWPOLYLINE
  5
18f
100
AcDbEntity
  8
Calque_1
 62
7
100
AcDbPolyline
 90
25
 70
1
 10
96.844641
 20
15.560250
 30
0.0
 10
97.132507
 20
15.716890
 30
0.0
 10
97.581241
 20
15.784590
 30
0.0
 10
98.068074
 20
15.636420
 30
0.0
 10
98.262807
 20
15.263890
 30
0.0
 10
98.262807
 20
14.133590
 30
0.0
 10
98.491407
 20
14.133590
 30
0.0
 10
98.605707
 20
14.048890
 30
0.0
 10
98.491407
 20
13.959990
 30
0.0
 10
98.089241
 20
13.959990
 30
0.0
 10
98.089241
 20
14.243630
 30
0.0
 10
97.698716
 20
13.980103
 30
0.0
 10
97.280674
 20
13.892260
 30
0.0
 10
96.802308
 20
14.040430
 30
0.0
 10
96.620274
 20
14.434130
 30
0.0
 10
96.865808
 20
14.878630
 30
0.0
 10
97.513507
 20
15.052190
 30
0.0
 10
98.089241
 20
14.963290
 30
0.0
 10
98.089241
 20
15.263860
 30
0.0
 10
97.945307
 20
15.513630
 30
0.0
 10
97.568541
 20
15.611030
 30
0.0
 10
97.166374
 20
15.543330
 30
0.0
 10
96.925074
 20
15.475630
 30
0.0
 10
96.865804
 20
15.501030
 30
0.0
 10
96.844634
 20
15.560330
 30
0.0
  0
LWPOLYLINE
  5
190
100
AcDbEntity
  8
Calque_1
 62
7
100
AcDbPolyline
 90
9
 70
1
 10
98.089241
 20
14.434190
 30
0.0
 10
98.089241
 20
14.815190
 30
0.0
 10
97.547374
 20
14.878690
 30
0.0
 10
97.001274
 20
14.751690
 30
0.0
 10
96.793841
 20
14.429950
 30
0.0
 10
96.925074
 20
14.163250
 30
0.0
 10
97.276441
 20
14.065850
 30
0.0
 10
97.687074
 20
14.150550
 30
0.0
 10
98.089241
 20
14.434190
 30
0.0
  0
LWPOLYLINE
  5
191
100
AcDbEntity
  8
Calque_1
 62
7
100
AcDbPolyline
 90
37
 70
1
 10
100.204250
 20
15.611050
 30
0.0
 10
100.056090
 20
15.594150
 30
0.0
 10
99.924854
 20
15.547550
 30
0.0
 10
99.823254
 20
15.488250
 30
0.0
 10
99.730124
 20
15.412050
 30
0.0
 10
99.662394
 20
15.335850
 30
0.0
 10
99.603124
 20
15.259650
 30
0.0
 10
99.560794
 20
15.204650
 30
0.0
 10
99.560794
 20
14.133620
 30
0.0
 10
99.751294
 20
14.133620
 30
0.0
 10
99.865594
 20
14.048920
 30
0.0
 10
99.751294
 20
13.960020
 30
0.0
 10
99.196720
 20
13.960020
 30
0.0
 10
99.078187
 20
14.048920
 30
0.0
 10
99.196720
 20
14.133620
 30
0.0
 10
99.387220
 20
14.133620
 30
0.0
 10
99.387220
 20
15.551790
 30
0.0
 10
99.243287
 20
15.551790
 30
0.0
 10
99.128987
 20
15.640690
 30
0.0
 10
99.243287
 20
15.725390
 30
0.0
 10
99.560787
 20
15.725390
 30
0.0
 10
99.560787
 20
15.433290
 30
0.0
 10
99.882520
 20
15.708460
 30
0.0
 10
100.221190
 20
15.784660
 30
0.0
 10
100.695320
 20
15.619560
 30
0.0
 10
100.885820
 20
15.208930
 30
0.0
 10
100.885820
 20
14.133660
 30
0.0
 10
101.029750
 20
14.133660
 30
0.0
 10
101.144050
 20
14.048960
 30
0.0
 10
101.029750
 20
13.960060
 30
0.0
 10
100.568320
 20
13.960060
 30
0.0
 10
100.454020
 20
14.048960
 30
0.0
 10
100.568320
 20
14.133660
 30
0.0
 10
100.712250
 20
14.133660
 30
0.0
 10
100.712250
 20
15.179290
 30
0.0
 10
100.572550
 20
15.484090
 30
0.0
 10
100.204250
 20
15.611090
 30
0.0
  0
LWPOLYLINE
  5
192
100
AcDbEntity
  8
Calque_1
 62
7
100
AcDbPolyline
 90
24
 70
1
 10
103.254830
 20
15.373990
 30
0.0
 10
103.254830
 20
15.725350
 30
0.0
 10
103.657000
 20
15.725350
 30
0.0
 10
103.771300
 20
15.640650
 30
0.0
 10
103.657000
 20
15.551750
 30
0.0
 10
103.428400
 20
15.551750
 30
0.0
 10
103.428400
 20
13.841480
 30
0.0
 10
103.225200
 20
13.371580
 30
0.0
 10
102.729900
 20
13.172610
 30
0.0
 10
102.247300
 20
13.172610
 30
0.0
 10
102.133000
 20
13.261510
 30
0.0
 10
102.247300
 20
13.346210
 30
0.0
 10
102.738370
 20
13.346210
 30
0.0
 10
103.102430
 20
13.498610
 30
0.0
 10
103.254830
 20
13.866910
 30
0.0
 10
103.254830
 20
14.413010
 30
0.0
 10
102.934155
 20
14.105038
 30
0.0
 10
102.530930
 20
14.002380
 30
0.0
 10
101.912870
 20
14.264840
 30
0.0
 10
101.658870
 20
14.895610
 30
0.0
 10
101.912870
 20
15.522140
 30
0.0
 10
102.530930
 20
15.784610
 30
0.0
 10
102.936275
 20
15.681953
 30
0.0
 10
103.254830
 20
15.373980
 30
0.0
  0
LWPOLYLINE
  5
193
100
AcDbEntity
  8
Calque_1
 62
7
100
AcDbPolyline
 90
9
 70
1
 10
102.543630
 20
15.611050
 30
0.0
 10
102.039870
 20
15.403620
 30
0.0
 10
101.832430
 20
14.895620
 30
0.0
 10
102.039870
 20
14.383390
 30
0.0
 10
102.543630
 20
14.175950
 30
0.0
 10
103.047400
 20
14.383390
 30
0.0
 10
103.254830
 20
14.887150
 30
0.0
 10
103.047400
 20
15.403620
 30
0.0
 10
102.543630
 20
15.611050
 30
0.0
  0
LWPOLYLINE
  5
194
100
AcDbEntity
  8
Calque_1
 62
7
100
AcDbPolyline
 90
22
 70
1
 10
106.131850
 20
14.802490
 30
0.0
 10
104.370780
 20
14.802490
 30
0.0
 10
104.650180
 20
14.264850
 30
0.0
 10
105.225910
 20
14.065890
 30
0.0
 10
105.632310
 20
14.129390
 30
0.0
 10
105.966750
 20
14.294490
 30
0.0
 10
106.034450
 20
14.324090
 30
0.0
 10
106.089450
 20
14.298690
 30
0.0
 10
106.114850
 20
14.239390
 30
0.0
 10
105.810050
 20
14.010790
 30
0.0
 10
105.221620
 20
13.892260
 30
0.0
 10
104.825803
 20
13.964228
 30
0.0
 10
104.493490
 20
14.180130
 30
0.0
 10
104.271235
 20
14.498685
 30
0.0
 10
104.197150
 20
14.878630
 30
0.0
 10
104.267000
 20
15.232110
 30
0.0
 10
104.476550
 20
15.522090
 30
0.0
 10
105.162350
 20
15.784560
 30
0.0
 10
105.550760
 20
15.716828
 30
0.0
 10
105.860850
 20
15.513630
 30
0.0
 10
106.064055
 20
15.202480
 30
0.0
 10
106.131790
 20
14.802430
 30
0.0
  0
LWPOLYLINE
  5
195
100
AcDbEntity
  8
Calque_1
 62
7
100
AcDbPolyline
 90
6
 70
1
 10
104.370780
 20
14.976050
 30
0.0
 10
105.954050
 20
14.976050
 30
0.0
 10
105.687350
 20
15.437490
 30
0.0
 10
105.162410
 20
15.611050
 30
0.0
 10
104.641710
 20
15.437490
 30
0.0
 10
104.370780
 20
14.976050
 30
0.0
  0
LWPOLYLINE
  5
196
100
AcDbEntity
  8
Calque_1
 62
7
100
AcDbPolyline
 90
25
 70
1
 10
163.796290
 20
13.960050
 30
0.0
 10
163.584630
 20
13.960050
 30
0.0
 10
163.199390
 20
15.056490
 30
0.0
 10
162.822630
 20
13.960050
 30
0.0
 10
162.606730
 20
13.960050
 30
0.0
 10
162.251130
 20
15.551790
 30
0.0
 10
162.170730
 20
15.551790
 30
0.0
 10
162.056430
 20
15.640690
 30
0.0
 10
162.170730
 20
15.725390
 30
0.0
 10
162.640630
 20
15.725390
 30
0.0
 10
162.754930
 20
15.640690
 30
0.0
 10
162.640630
 20
15.551790
 30
0.0
 10
162.416270
 20
15.551790
 30
0.0
 10
162.721070
 20
14.197120
 30
0.0
 10
163.085130
 20
15.276620
 30
0.0
 10
163.301030
 20
15.276620
 30
0.0
 10
163.677800
 20
14.197120
 30
0.0
 10
163.969900
 20
15.551790
 30
0.0
 10
163.758230
 20
15.551790
 30
0.0
 10
163.643930
 20
15.640690
 30
0.0
 10
163.758230
 20
15.725390
 30
0.0
 10
164.228130
 20
15.725390
 30
0.0
 10
164.342430
 20
15.640690
 30
0.0
 10
164.228130
 20
15.551790
 30
0.0
 10
164.147730
 20
15.551790
 30
0.0
  0
LWPOLYLINE
  5
197
100
AcDbEntity
  8
Calque_1
 62
7
100
AcDbPolyline
 90
25
 70
1
 10
164.996910
 20
15.560250
 30
0.0
 10
165.284770
 20
15.716890
 30
0.0
 10
165.733510
 20
15.784590
 30
0.0
 10
166.220340
 20
15.636420
 30
0.0
 10
166.415070
 20
15.263890
 30
0.0
 10
166.415070
 20
14.133590
 30
0.0
 10
166.643670
 20
14.133590
 30
0.0
 10
166.757970
 20
14.048890
 30
0.0
 10
166.643670
 20
13.959990
 30
0.0
 10
166.241510
 20
13.959990
 30
0.0
 10
166.241510
 20
14.243630
 30
0.0
 10
165.850983
 20
13.980103
 30
0.0
 10
165.432940
 20
13.892260
 30
0.0
 10
164.954570
 20
14.040430
 30
0.0
 10
164.772540
 20
14.434130
 30
0.0
 10
165.018070
 20
14.878630
 30
0.0
 10
165.665770
 20
15.052190
 30
0.0
 10
166.241510
 20
14.963290
 30
0.0
 10
166.241510
 20
15.263860
 30
0.0
 10
166.097570
 20
15.513630
 30
0.0
 10
165.720810
 20
15.611030
 30
0.0
 10
165.318640
 20
15.543330
 30
0.0
 10
165.077340
 20
15.475630
 30
0.0
 10
165.018040
 20
15.501030
 30
0.0
 10
164.996840
 20
15.560330
 30
0.0
  0
LWPOLYLINE
  5
198
100
AcDbEntity
  8
Calque_1
 62
7
100
AcDbPolyline
 90
9
 70
1
 10
166.241510
 20
14.434190
 30
0.0
 10
166.241510
 20
14.815190
 30
0.0
 10
165.699640
 20
14.878690
 30
0.0
 10
165.153540
 20
14.751690
 30
0.0
 10
164.946110
 20
14.429950
 30
0.0
 10
165.077340
 20
14.163250
 30
0.0
 10
165.428710
 20
14.065850
 30
0.0
 10
165.839340
 20
14.150550
 30
0.0
 10
166.241510
 20
14.434190
 30
0.0
  0
LWPOLYLINE
  5
199
100
AcDbEntity
  8
Calque_1
 62
7
100
AcDbPolyline
 90
20
 70
1
 10
168.428490
 20
13.960050
 30
0.0
 10
168.132150
 20
13.960050
 30
0.0
 10
167.420950
 20
15.551790
 30
0.0
 10
167.247390
 20
15.551790
 30
0.0
 10
167.133090
 20
15.640690
 30
0.0
 10
167.247390
 20
15.725390
 30
0.0
 10
167.886620
 20
15.725390
 30
0.0
 10
168.005150
 20
15.640690
 30
0.0
 10
167.886620
 20
15.551790
 30
0.0
 10
167.611450
 20
15.551790
 30
0.0
 10
168.246450
 20
14.133620
 30
0.0
 10
168.326850
 20
14.133620
 30
0.0
 10
168.949150
 20
15.551790
 30
0.0
 10
168.661280
 20
15.551790
 30
0.0
 10
168.546980
 20
15.640690
 30
0.0
 10
168.661280
 20
15.725390
 30
0.0
 10
169.304750
 20
15.725390
 30
0.0
 10
169.419050
 20
15.640690
 30
0.0
 10
169.304750
 20
15.551790
 30
0.0
 10
169.131180
 20
15.551790
 30
0.0
  0
LWPOLYLINE
  5
19a
100
AcDbEntity
  8
Calque_1
 62
7
100
AcDbPolyline
 90
22
 70
1
 10
171.745770
 20
14.802490
 30
0.0
 10
169.984700
 20
14.802490
 30
0.0
 10
170.264100
 20
14.264850
 30
0.0
 10
170.839830
 20
14.065890
 30
0.0
 10
171.246230
 20
14.129390
 30
0.0
 10
171.580670
 20
14.294490
 30
0.0
 10
171.648370
 20
14.324090
 30
0.0
 10
171.703370
 20
14.298690
 30
0.0
 10
171.728770
 20
14.239390
 30
0.0
 10
171.423970
 20
14.010790
 30
0.0
 10
170.835540
 20
13.892260
 30
0.0
 10
170.439723
 20
13.964228
 30
0.0
 10
170.107410
 20
14.180130
 30
0.0
 10
169.885155
 20
14.498685
 30
0.0
 10
169.811070
 20
14.878630
 30
0.0
 10
169.880920
 20
15.232110
 30
0.0
 10
170.090470
 20
15.522090
 30
0.0
 10
170.776270
 20
15.784560
 30
0.0
 10
171.164680
 20
15.716828
 30
0.0
 10
171.474770
 20
15.513630
 30
0.0
 10
171.677975
 20
15.202480
 30
0.0
 10
171.745710
 20
14.802430
 30
0.0
  0
LWPOLYLINE
  5
19b
100
AcDbEntity
  8
Calque_1
 62
7
100
AcDbPolyline
 90
6
 70
1
 10
169.984700
 20
14.976050
 30
0.0
 10
171.567970
 20
14.976050
 30
0.0
 10
171.301270
 20
15.437490
 30
0.0
 10
170.776330
 20
15.611050
 30
0.0
 10
170.255630
 20
15.437490
 30
0.0
 10
169.984700
 20
14.976050
 30
0.0
  0
LWPOLYLINE
  5
19c
100
AcDbEntity
  8
Calque_1
 62
7
100
AcDbPolyline
 90
30
 70
1
 10
174.284110
 20
16.292620
 30
0.0
 10
174.178280
 20
16.305320
 30
0.0
 10
173.941210
 20
16.330720
 30
0.0
 10
173.699910
 20
16.343420
 30
0.0
 10
173.361250
 20
16.241820
 30
0.0
 10
173.230010
 20
15.983590
 30
0.0
 10
173.230010
 20
15.725350
 30
0.0
 10
174.030110
 20
15.725350
 30
0.0
 10
174.144410
 20
15.640650
 30
0.0
 10
174.030110
 20
15.551750
 30
0.0
 10
173.230010
 20
15.551750
 30
0.0
 10
173.230010
 20
14.133580
 30
0.0
 10
173.983550
 20
14.133580
 30
0.0
 10
174.097850
 20
14.048880
 30
0.0
 10
173.983550
 20
13.959980
 30
0.0
 10
172.641580
 20
13.959980
 30
0.0
 10
172.527280
 20
14.048880
 30
0.0
 10
172.641580
 20
14.133580
 30
0.0
 10
173.056450
 20
14.133580
 30
0.0
 10
173.056450
 20
15.551750
 30
0.0
 10
172.683910
 20
15.551750
 30
0.0
 10
172.569610
 20
15.640650
 30
0.0
 10
172.683910
 20
15.725350
 30
0.0
 10
173.056450
 20
15.725350
 30
0.0
 10
173.056450
 20
15.983590
 30
0.0
 10
173.238480
 20
16.364590
 30
0.0
 10
173.708380
 20
16.516990
 30
0.0
 10
174.296810
 20
16.461990
 30
0.0
 10
174.373010
 20
16.377290
 30
0.0
 10
174.284110
 20
16.292590
 30
0.0
  0
LWPOLYLINE
  5
19d
100
AcDbEntity
  8
Calque_1
 62
7
100
AcDbPolyline
 90
15
 70
1
 10
175.891130
 20
15.784620
 30
0.0
 10
176.265780
 20
15.714770
 30
0.0
 10
176.576930
 20
15.505220
 30
0.0
 10
176.786480
 20
15.198303
 30
0.0
 10
176.856330
 20
14.827890
 30
0.0
 10
176.785420
 20
14.466995
 30
0.0
 10
176.572690
 20
14.163250
 30
0.0
 10
175.891130
 20
13.892320
 30
0.0
 10
175.205330
 20
14.167490
 30
0.0
 10
174.995780
 20
14.473345
 30
0.0
 10
174.925930
 20
14.840590
 30
0.0
 10
174.995780
 20
15.201478
 30
0.0
 10
175.205330
 20
15.505220
 30
0.0
 10
175.518595
 20
15.714770
 30
0.0
 10
175.891130
 20
15.784620
 30
0.0
  0
LWPOLYLINE
  5
19e
100
AcDbEntity
  8
Calque_1
 62
7
100
AcDbPolyline
 90
9
 70
1
 10
175.891130
 20
15.611050
 30
0.0
 10
175.328090
 20
15.386690
 30
0.0
 10
175.099490
 20
14.840590
 30
0.0
 10
175.328090
 20
14.290250
 30
0.0
 10
175.891130
 20
14.065890
 30
0.0
 10
176.449930
 20
14.290250
 30
0.0
 10
176.682760
 20
14.827890
 30
0.0
 10
176.454160
 20
15.386690
 30
0.0
 10
175.891130
 20
15.611050
 30
0.0
  0
LWPOLYLINE
  5
19f
100
AcDbEntity
  8
Calque_1
 62
7
100
AcDbPolyline
 90
25
 70
1
 10
179.360810
 20
15.416320
 30
0.0
 10
179.229570
 20
15.505220
 30
0.0
 10
179.013670
 20
15.594120
 30
0.0
 10
178.713110
 20
15.492520
 30
0.0
 10
178.209340
 20
15.069190
 30
0.0
 10
178.209340
 20
14.133620
 30
0.0
 10
178.967110
 20
14.133620
 30
0.0
 10
179.081410
 20
14.044720
 30
0.0
 10
178.967110
 20
13.960020
 30
0.0
 10
177.629370
 20
13.960020
 30
0.0
 10
177.515070
 20
14.048920
 30
0.0
 10
177.629370
 20
14.133620
 30
0.0
 10
178.035770
 20
14.133620
 30
0.0
 10
178.035770
 20
15.551790
 30
0.0
 10
177.718270
 20
15.551790
 30
0.0
 10
177.603970
 20
15.640690
 30
0.0
 10
177.718270
 20
15.725390
 30
0.0
 10
178.209340
 20
15.725390
 30
0.0
 10
178.209340
 20
15.293590
 30
0.0
 10
178.683470
 20
15.661890
 30
0.0
 10
179.026370
 20
15.767730
 30
0.0
 10
179.322710
 20
15.666130
 30
0.0
 10
179.449710
 20
15.505260
 30
0.0
 10
179.424310
 20
15.441760
 30
0.0
 10
179.360810
 20
15.416360
 30
0.0
  0
LWPOLYLINE
  5
1a0
100
AcDbEntity
  8
Calque_1
 62
7
100
AcDbPolyline
 90
39
 70
1
 10
180.171950
 20
15.725350
 30
0.0
 10
180.171950
 20
15.505220
 30
0.0
 10
180.379390
 20
15.721120
 30
0.0
 10
180.616450
 20
15.784620
 30
0.0
 10
180.854580
 20
15.709478
 30
0.0
 10
181.027090
 20
15.484050
 30
0.0
 10
181.505450
 20
15.784620
 30
0.0
 10
181.818720
 20
15.649150
 30
0.0
 10
181.949950
 20
15.327420
 30
0.0
 10
181.949950
 20
14.133620
 30
0.0
 10
182.093890
 20
14.133620
 30
0.0
 10
182.208190
 20
14.048920
 30
0.0
 10
182.093890
 20
13.960020
 30
0.0
 10
181.780620
 20
13.960020
 30
0.0
 10
181.780620
 20
15.310460
 30
0.0
 10
181.695920
 20
15.517890
 30
0.0
 10
181.501190
 20
15.610990
 30
0.0
 10
181.060920
 20
15.263860
 30
0.0
 10
181.060920
 20
14.133560
 30
0.0
 10
181.204860
 20
14.133560
 30
0.0
 10
181.319160
 20
14.048860
 30
0.0
 10
181.204860
 20
13.959960
 30
0.0
 10
180.891590
 20
13.959960
 30
0.0
 10
180.891590
 20
15.297700
 30
0.0
 10
180.806890
 20
15.513600
 30
0.0
 10
180.616390
 20
15.611000
 30
0.0
 10
180.171890
 20
15.263870
 30
0.0
 10
180.171890
 20
14.133570
 30
0.0
 10
180.315830
 20
14.133570
 30
0.0
 10
180.430130
 20
14.048870
 30
0.0
 10
180.315830
 20
13.959970
 30
0.0
 10
179.854390
 20
13.959970
 30
0.0
 10
179.744330
 20
14.048870
 30
0.0
 10
179.858630
 20
14.133570
 30
0.0
 10
180.002560
 20
14.133570
 30
0.0
 10
180.002560
 20
15.551740
 30
0.0
 10
179.858630
 20
15.551740
 30
0.0
 10
179.744330
 20
15.640640
 30
0.0
 10
179.858630
 20
15.725340
 30
0.0
  0
LWPOLYLINE
  5
1a1
100
AcDbEntity
  8
Calque_1
 62
7
100
AcDbPolyline
 90
30
 70
1
 10
126.795940
 20
16.292620
 30
0.0
 10
126.690110
 20
16.305320
 30
0.0
 10
126.453040
 20
16.330720
 30
0.0
 10
126.211740
 20
16.343420
 30
0.0
 10
125.873070
 20
16.241820
 30
0.0
 10
125.741840
 20
15.983590
 30
0.0
 10
125.741840
 20
15.725350
 30
0.0
 10
126.541940
 20
15.725350
 30
0.0
 10
126.656240
 20
15.640650
 30
0.0
 10
126.541940
 20
15.551750
 30
0.0
 10
125.741840
 20
15.551750
 30
0.0
 10
125.741840
 20
14.133580
 30
0.0
 10
126.495370
 20
14.133580
 30
0.0
 10
126.609670
 20
14.048880
 30
0.0
 10
126.495370
 20
13.959980
 30
0.0
 10
125.153410
 20
13.959980
 30
0.0
 10
125.039110
 20
14.048880
 30
0.0
 10
125.153410
 20
14.133580
 30
0.0
 10
125.568270
 20
14.133580
 30
0.0
 10
125.568270
 20
15.551750
 30
0.0
 10
125.195740
 20
15.551750
 30
0.0
 10
125.081440
 20
15.640650
 30
0.0
 10
125.195740
 20
15.725350
 30
0.0
 10
125.568270
 20
15.725350
 30
0.0
 10
125.568270
 20
15.983590
 30
0.0
 10
125.750310
 20
16.364590
 30
0.0
 10
126.220210
 20
16.516990
 30
0.0
 10
126.808640
 20
16.461990
 30
0.0
 10
126.884840
 20
16.377290
 30
0.0
 10
126.795940
 20
16.292590
 30
0.0
  0
LWPOLYLINE
  5
1a2
100
AcDbEntity
  8
Calque_1
 62
7
100
AcDbPolyline
 90
25
 70
1
 10
129.334290
 20
15.416320
 30
0.0
 10
129.203050
 20
15.505220
 30
0.0
 10
128.987150
 20
15.594120
 30
0.0
 10
128.686590
 20
15.492520
 30
0.0
 10
128.182820
 20
15.069190
 30
0.0
 10
128.182820
 20
14.133620
 30
0.0
 10
128.940590
 20
14.133620
 30
0.0
 10
129.054890
 20
14.044720
 30
0.0
 10
128.940590
 20
13.960020
 30
0.0
 10
127.602850
 20
13.960020
 30
0.0
 10
127.488550
 20
14.048920
 30
0.0
 10
127.602850
 20
14.133620
 30
0.0
 10
128.009250
 20
14.133620
 30
0.0
 10
128.009250
 20
15.551790
 30
0.0
 10
127.691750
 20
15.551790
 30
0.0
 10
127.577450
 20
15.640690
 30
0.0
 10
127.691750
 20
15.725390
 30
0.0
 10
128.182820
 20
15.725390
 30
0.0
 10
128.182820
 20
15.293590
 30
0.0
 10
128.656950
 20
15.661890
 30
0.0
 10
128.999850
 20
15.767730
 30
0.0
 10
129.296190
 20
15.666130
 30
0.0
 10
129.423190
 20
15.505260
 30
0.0
 10
129.397790
 20
15.441760
 30
0.0
 10
129.334290
 20
15.416360
 30
0.0
  0
LWPOLYLINE
  5
1a3
100
AcDbEntity
  8
Calque_1
 62
7
100
AcDbPolyline
 90
22
 70
1
 10
131.872630
 20
14.802490
 30
0.0
 10
130.111570
 20
14.802490
 30
0.0
 10
130.390970
 20
14.264850
 30
0.0
 10
130.966700
 20
14.065890
 30
0.0
 10
131.373100
 20
14.129390
 30
0.0
 10
131.707530
 20
14.294490
 30
0.0
 10
131.775230
 20
14.324090
 30
0.0
 10
131.830230
 20
14.298690
 30
0.0
 10
131.855630
 20
14.239390
 30
0.0
 10
131.550830
 20
14.010790
 30
0.0
 10
130.962400
 20
13.892260
 30
0.0
 10
130.566580
 20
13.964228
 30
0.0
 10
130.234260
 20
14.180130
 30
0.0
 10
130.012013
 20
14.498685
 30
0.0
 10
129.937930
 20
14.878630
 30
0.0
 10
130.007780
 20
15.232110
 30
0.0
 10
130.217330
 20
15.522090
 30
0.0
 10
130.903130
 20
15.784560
 30
0.0
 10
131.291540
 20
15.716828
 30
0.0
 10
131.601630
 20
15.513630
 30
0.0
 10
131.804828
 20
15.202480
 30
0.0
 10
131.872560
 20
14.802430
 30
0.0
  0
LWPOLYLINE
  5
1a4
100
AcDbEntity
  8
Calque_1
 62
7
100
AcDbPolyline
 90
6
 70
1
 10
130.111570
 20
14.976050
 30
0.0
 10
131.694830
 20
14.976050
 30
0.0
 10
131.428130
 20
15.437490
 30
0.0
 10
130.903200
 20
15.611050
 30
0.0
 10
130.382500
 20
15.437490
 30
0.0
 10
130.111570
 20
14.976050
 30
0.0
  0
LWPOLYLINE
  5
1a5
100
AcDbEntity
  8
Calque_1
 62
7
100
AcDbPolyline
 90
23
 70
1
 10
134.161210
 20
15.378220
 30
0.0
 10
134.161210
 20
15.725350
 30
0.0
 10
134.563380
 20
15.725350
 30
0.0
 10
134.677680
 20
15.640650
 30
0.0
 10
134.563380
 20
15.551750
 30
0.0
 10
134.334780
 20
15.551750
 30
0.0
 10
134.334780
 20
13.346180
 30
0.0
 10
134.563380
 20
13.346180
 30
0.0
 10
134.677680
 20
13.261480
 30
0.0
 10
134.563380
 20
13.172580
 30
0.0
 10
133.746350
 20
13.172580
 30
0.0
 10
133.632050
 20
13.261480
 30
0.0
 10
133.746350
 20
13.346180
 30
0.0
 10
134.161210
 20
13.346180
 30
0.0
 10
134.161210
 20
14.408750
 30
0.0
 10
133.828895
 20
14.103950
 30
0.0
 10
133.399210
 20
14.002350
 30
0.0
 10
132.743050
 20
14.260580
 30
0.0
 10
132.476350
 20
14.895580
 30
0.0
 10
132.743050
 20
15.526350
 30
0.0
 10
133.403450
 20
15.784580
 30
0.0
 10
133.827840
 20
15.682980
 30
0.0
 10
134.161210
 20
15.378180
 30
0.0
  0
LWPOLYLINE
  5
1a6
100
AcDbEntity
  8
Calque_1
 62
7
100
AcDbPolyline
 90
9
 70
1
 10
133.403450
 20
15.611050
 30
0.0
 10
132.865810
 20
15.403620
 30
0.0
 10
132.649910
 20
14.895620
 30
0.0
 10
132.865810
 20
14.383390
 30
0.0
 10
133.403450
 20
14.175950
 30
0.0
 10
133.936850
 20
14.383390
 30
0.0
 10
134.161210
 20
14.887150
 30
0.0
 10
133.941080
 20
15.403620
 30
0.0
 10
133.403450
 20
15.611050
 30
0.0
  0
LWPOLYLINE
  5
1a7
100
AcDbEntity
  8
Calque_1
 62
7
100
AcDbPolyline
 90
25
 70
1
 10
136.606430
 20
13.960050
 30
0.0
 10
136.606430
 20
14.239450
 30
0.0
 10
136.236013
 20
13.979103
 30
0.0
 10
135.835960
 20
13.892320
 30
0.0
 10
135.425330
 20
14.044720
 30
0.0
 10
135.272930
 20
14.446890
 30
0.0
 10
135.272930
 20
15.551790
 30
0.0
 10
135.044330
 20
15.551790
 30
0.0
 10
134.930030
 20
15.640690
 30
0.0
 10
135.044330
 20
15.725390
 30
0.0
 10
135.446490
 20
15.725390
 30
0.0
 10
135.446490
 20
14.446930
 30
0.0
 10
135.556560
 20
14.175990
 30
0.0
 10
135.831730
 20
14.065930
 30
0.0
 10
136.237070
 20
14.161180
 30
0.0
 10
136.606430
 20
14.446930
 30
0.0
 10
136.606430
 20
15.551830
 30
0.0
 10
136.293160
 20
15.551830
 30
0.0
 10
136.174630
 20
15.640730
 30
0.0
 10
136.293160
 20
15.725430
 30
0.0
 10
136.779990
 20
15.725430
 30
0.0
 10
136.779990
 20
14.133700
 30
0.0
 10
136.923930
 20
14.133700
 30
0.0
 10
137.038230
 20
14.049000
 30
0.0
 10
136.923930
 20
13.960100
 30
0.0
  0
LWPOLYLINE
  5
1a8
100
AcDbEntity
  8
Calque_1
 62
7
100
AcDbPolyline
 90
22
 70
1
 10
139.487670
 20
14.802490
 30
0.0
 10
137.726610
 20
14.802490
 30
0.0
 10
138.006010
 20
14.264850
 30
0.0
 10
138.581740
 20
14.065890
 30
0.0
 10
138.988140
 20
14.129390
 30
0.0
 10
139.322570
 20
14.294490
 30
0.0
 10
139.390270
 20
14.324090
 30
0.0
 10
139.445270
 20
14.298690
 30
0.0
 10
139.470670
 20
14.239390
 30
0.0
 10
139.165870
 20
14.010790
 30
0.0
 10
138.577440
 20
13.892260
 30
0.0
 10
138.181620
 20
13.964228
 30
0.0
 10
137.849300
 20
14.180130
 30
0.0
 10
137.627053
 20
14.498685
 30
0.0
 10
137.552970
 20
14.878630
 30
0.0
 10
137.622820
 20
15.232110
 30
0.0
 10
137.832370
 20
15.522090
 30
0.0
 10
138.518170
 20
15.784560
 30
0.0
 10
138.906580
 20
15.716828
 30
0.0
 10
139.216670
 20
15.513630
 30
0.0
 10
139.419868
 20
15.202480
 30
0.0
 10
139.487600
 20
14.802430
 30
0.0
  0
LWPOLYLINE
  5
1a9
100
AcDbEntity
  8
Calque_1
 62
7
100
AcDbPolyline
 90
6
 70
1
 10
137.726610
 20
14.976050
 30
0.0
 10
139.309870
 20
14.976050
 30
0.0
 10
139.043170
 20
15.437490
 30
0.0
 10
138.518240
 20
15.611050
 30
0.0
 10
137.997540
 20
15.437490
 30
0.0
 10
137.726610
 20
14.976050
 30
0.0
  0
LWPOLYLINE
  5
1aa
100
AcDbEntity
  8
Calque_1
 62
7
100
AcDbPolyline
 90
37
 70
1
 10
141.175120
 20
15.611050
 30
0.0
 10
141.026950
 20
15.594150
 30
0.0
 10
140.895720
 20
15.547550
 30
0.0
 10
140.794120
 20
15.488250
 30
0.0
 10
140.701020
 20
15.412050
 30
0.0
 10
140.633320
 20
15.335850
 30
0.0
 10
140.574020
 20
15.259650
 30
0.0
 10
140.531720
 20
15.204650
 30
0.0
 10
140.531720
 20
14.133620
 30
0.0
 10
140.722220
 20
14.133620
 30
0.0
 10
140.836520
 20
14.048920
 30
0.0
 10
140.722220
 20
13.960020
 30
0.0
 10
140.167660
 20
13.960020
 30
0.0
 10
140.049120
 20
14.048920
 30
0.0
 10
140.167660
 20
14.133620
 30
0.0
 10
140.358160
 20
14.133620
 30
0.0
 10
140.358160
 20
15.551790
 30
0.0
 10
140.214220
 20
15.551790
 30
0.0
 10
140.099920
 20
15.640690
 30
0.0
 10
140.214220
 20
15.725390
 30
0.0
 10
140.531720
 20
15.725390
 30
0.0
 10
140.531720
 20
15.433290
 30
0.0
 10
140.853460
 20
15.708460
 30
0.0
 10
141.192120
 20
15.784660
 30
0.0
 10
141.666260
 20
15.619560
 30
0.0
 10
141.856760
 20
15.208930
 30
0.0
 10
141.856760
 20
14.133660
 30
0.0
 10
142.000690
 20
14.133660
 30
0.0
 10
142.114990
 20
14.048960
 30
0.0
 10
142.000690
 20
13.960060
 30
0.0
 10
141.539260
 20
13.960060
 30
0.0
 10
141.424960
 20
14.048960
 30
0.0
 10
141.539260
 20
14.133660
 30
0.0
 10
141.683190
 20
14.133660
 30
0.0
 10
141.683190
 20
15.179290
 30
0.0
 10
141.543490
 20
15.484090
 30
0.0
 10
141.175190
 20
15.611090
 30
0.0
  0
LWPOLYLINE
  5
1ab
100
AcDbEntity
  8
Calque_1
 62
7
100
AcDbPolyline
 90
30
 70
1
 10
144.627870
 20
14.332590
 30
0.0
 10
144.555870
 20
14.222520
 30
0.0
 10
144.365370
 20
14.078590
 30
0.0
 10
144.060570
 20
13.947350
 30
0.0
 10
143.671100
 20
13.892350
 30
0.0
 10
142.985300
 20
14.154820
 30
0.0
 10
142.785275
 20
14.453265
 30
0.0
 10
142.718600
 20
14.823680
 30
0.0
 10
142.787393
 20
15.205740
 30
0.0
 10
142.993770
 20
15.513720
 30
0.0
 10
143.305980
 20
15.716918
 30
0.0
 10
143.692270
 20
15.784650
 30
0.0
 10
144.352670
 20
15.551820
 30
0.0
 10
144.352670
 20
15.606820
 30
0.0
 10
144.441570
 20
15.725350
 30
0.0
 10
144.526270
 20
15.606820
 30
0.0
 10
144.526270
 20
15.221590
 30
0.0
 10
144.441570
 20
15.107290
 30
0.0
 10
144.352670
 20
15.208890
 30
0.0
 10
144.141000
 20
15.492520
 30
0.0
 10
143.679570
 20
15.611050
 30
0.0
 10
143.108070
 20
15.390920
 30
0.0
 10
142.892170
 20
14.827890
 30
0.0
 10
143.112300
 20
14.277550
 30
0.0
 10
143.679570
 20
14.065890
 30
0.0
 10
144.108193
 20
14.142090
 30
0.0
 10
144.471200
 20
14.370690
 30
0.0
 10
144.547400
 20
14.412990
 30
0.0
 10
144.602400
 20
14.387590
 30
0.0
 10
144.627800
 20
14.332590
 30
0.0
  0
LWPOLYLINE
  5
1ac
100
AcDbEntity
  8
Calque_1
 62
7
100
AcDbPolyline
 90
26
 70
1
 10
146.095180
 20
13.960050
 30
0.0
 10
145.299310
 20
15.551790
 30
0.0
 10
145.231610
 20
15.551790
 30
0.0
 10
145.117310
 20
15.640690
 30
0.0
 10
145.231610
 20
15.725390
 30
0.0
 10
145.718440
 20
15.725390
 30
0.0
 10
145.832740
 20
15.640690
 30
0.0
 10
145.718440
 20
15.551790
 30
0.0
 10
145.498310
 20
15.551790
 30
0.0
 10
146.192580
 20
14.150550
 30
0.0
 10
146.874140
 20
15.551790
 30
0.0
 10
146.645540
 20
15.551790
 30
0.0
 10
146.531240
 20
15.640690
 30
0.0
 10
146.645540
 20
15.725390
 30
0.0
 10
147.111210
 20
15.725390
 30
0.0
 10
147.225510
 20
15.640690
 30
0.0
 10
147.111210
 20
15.551790
 30
0.0
 10
147.051910
 20
15.551790
 30
0.0
 10
145.968180
 20
13.346220
 30
0.0
 10
146.243350
 20
13.346220
 30
0.0
 10
146.357650
 20
13.261520
 30
0.0
 10
146.243350
 20
13.172620
 30
0.0
 10
145.256980
 20
13.172620
 30
0.0
 10
145.142680
 20
13.261520
 30
0.0
 10
145.256980
 20
13.346220
 30
0.0
 10
145.794610
 20
13.346220
 30
0.0
  0
LWPOLYLINE
  5
1ad
100
AcDbEntity
  8
Calque_1
 62
7
100
AcDbPolyline
 90
15
 70
1
 10
453.655320
 20
87.784620
 30
0.0
 10
454.029970
 20
87.714770
 30
0.0
 10
454.341120
 20
87.505220
 30
0.0
 10
454.550670
 20
87.198303
 30
0.0
 10
454.620520
 20
86.827890
 30
0.0
 10
454.549613
 20
86.466995
 30
0.0
 10
454.336890
 20
86.163250
 30
0.0
 10
453.655320
 20
85.892320
 30
0.0
 10
452.969520
 20
86.167490
 30
0.0
 10
452.759970
 20
86.473345
 30
0.0
 10
452.690120
 20
86.840590
 30
0.0
 10
452.759970
 20
87.201478
 30
0.0
 10
452.969520
 20
87.505220
 30
0.0
 10
453.282785
 20
87.714770
 30
0.0
 10
453.655320
 20
87.784620
 30
0.0
  0
LWPOLYLINE
  5
1ae
100
AcDbEntity
  8
Calque_1
 62
7
100
AcDbPolyline
 90
9
 70
1
 10
453.655320
 20
87.611050
 30
0.0
 10
453.092290
 20
87.386690
 30
0.0
 10
452.863690
 20
86.840590
 30
0.0
 10
453.092290
 20
86.290250
 30
0.0
 10
453.655320
 20
86.065890
 30
0.0
 10
454.214120
 20
86.290250
 30
0.0
 10
454.446950
 20
86.827890
 30
0.0
 10
454.218350
 20
87.386690
 30
0.0
 10
453.655320
 20
87.611050
 30
0.0
  0
LWPOLYLINE
  5
1af
100
AcDbEntity
  8
Calque_1
 62
7
100
AcDbPolyline
 90
25
 70
1
 10
456.782100
 20
85.960050
 30
0.0
 10
456.782100
 20
86.239450
 30
0.0
 10
456.411683
 20
85.979103
 30
0.0
 10
456.011630
 20
85.892320
 30
0.0
 10
455.601000
 20
86.044720
 30
0.0
 10
455.448600
 20
86.446890
 30
0.0
 10
455.448600
 20
87.551790
 30
0.0
 10
455.220000
 20
87.551790
 30
0.0
 10
455.105700
 20
87.640690
 30
0.0
 10
455.220000
 20
87.725390
 30
0.0
 10
455.622170
 20
87.725390
 30
0.0
 10
455.622170
 20
86.446930
 30
0.0
 10
455.732230
 20
86.175990
 30
0.0
 10
456.007400
 20
86.065930
 30
0.0
 10
456.412740
 20
86.161180
 30
0.0
 10
456.782100
 20
86.446930
 30
0.0
 10
456.782100
 20
87.551830
 30
0.0
 10
456.468830
 20
87.551830
 30
0.0
 10
456.350300
 20
87.640730
 30
0.0
 10
456.468830
 20
87.725430
 30
0.0
 10
456.955670
 20
87.725430
 30
0.0
 10
456.955670
 20
86.133700
 30
0.0
 10
457.099600
 20
86.133700
 30
0.0
 10
457.213900
 20
86.049000
 30
0.0
 10
457.099600
 20
85.960100
 30
0.0
  0
LWPOLYLINE
  5
1b0
100
AcDbEntity
  8
Calque_1
 62
7
100
AcDbPolyline
 90
25
 70
1
 10
458.249410
 20
87.725350
 30
0.0
 10
459.180750
 20
87.725350
 30
0.0
 10
459.295050
 20
87.640650
 30
0.0
 10
459.180750
 20
87.551750
 30
0.0
 10
458.249410
 20
87.551750
 30
0.0
 10
458.249410
 20
86.421450
 30
0.0
 10
458.376410
 20
86.163210
 30
0.0
 10
458.723550
 20
86.065810
 30
0.0
 10
459.100310
 20
86.112410
 30
0.0
 10
459.426280
 20
86.235180
 30
0.0
 10
459.493980
 20
86.260580
 30
0.0
 10
459.548980
 20
86.235180
 30
0.0
 10
459.574380
 20
86.175880
 30
0.0
 10
459.286510
 20
85.985380
 30
0.0
 10
458.731940
 20
85.892280
 30
0.0
 10
458.253580
 20
86.031980
 30
0.0
 10
458.075780
 20
86.412980
 30
0.0
 10
458.075780
 20
87.551750
 30
0.0
 10
457.762510
 20
87.551750
 30
0.0
 10
457.643980
 20
87.640650
 30
0.0
 10
457.762510
 20
87.725350
 30
0.0
 10
458.075780
 20
87.725350
 30
0.0
 10
458.075780
 20
88.229120
 30
0.0
 10
458.164680
 20
88.343420
 30
0.0
 10
458.249380
 20
88.229120
 30
0.0
  0
LWPOLYLINE
  5
1b1
100
AcDbEntity
  8
Calque_1
 62
7
100
AcDbPolyline
 90
32
 70
1
 10
445.416690
 20
51.179250
 30
0.0
 10
445.272760
 20
51.488290
 30
0.0
 10
444.895990
 20
51.611050
 30
0.0
 10
444.599660
 20
51.539050
 30
0.0
 10
444.311790
 20
51.268110
 30
0.0
 10
444.265190
 20
51.213110
 30
0.0
 10
444.265190
 20
50.133610
 30
0.0
 10
444.455690
 20
50.133610
 30
0.0
 10
444.574230
 20
50.048910
 30
0.0
 10
444.455690
 20
49.960010
 30
0.0
 10
443.896890
 20
49.960010
 30
0.0
 10
443.782590
 20
50.048910
 30
0.0
 10
443.896890
 20
50.133610
 30
0.0
 10
444.091630
 20
50.133610
 30
0.0
 10
444.091630
 20
52.343410
 30
0.0
 10
443.863030
 20
52.343410
 30
0.0
 10
443.748730
 20
52.432310
 30
0.0
 10
443.863030
 20
52.517010
 30
0.0
 10
444.265190
 20
52.517010
 30
0.0
 10
444.265190
 20
51.429040
 30
0.0
 10
444.574230
 20
51.704210
 30
0.0
 10
444.917130
 20
51.784610
 30
0.0
 10
445.399730
 20
51.615280
 30
0.0
 10
445.590230
 20
51.191940
 30
0.0
 10
445.590230
 20
50.133610
 30
0.0
 10
445.780730
 20
50.133610
 30
0.0
 10
445.899260
 20
50.048910
 30
0.0
 10
445.780730
 20
49.960010
 30
0.0
 10
445.226160
 20
49.960010
 30
0.0
 10
445.111860
 20
50.048910
 30
0.0
 10
445.226160
 20
50.133610
 30
0.0
 10
445.416660
 20
50.133610
 30
0.0
  0
LWPOLYLINE
  5
1b2
100
AcDbEntity
  8
Calque_1
 62
7
100
AcDbPolyline
 90
22
 70
1
 10
448.306400
 20
50.802490
 30
0.0
 10
446.545340
 20
50.802490
 30
0.0
 10
446.824740
 20
50.264850
 30
0.0
 10
447.400470
 20
50.065890
 30
0.0
 10
447.806870
 20
50.129390
 30
0.0
 10
448.141300
 20
50.294490
 30
0.0
 10
448.209000
 20
50.324090
 30
0.0
 10
448.264000
 20
50.298690
 30
0.0
 10
448.289400
 20
50.239390
 30
0.0
 10
447.984600
 20
50.010790
 30
0.0
 10
447.396170
 20
49.892260
 30
0.0
 10
447.000350
 20
49.964228
 30
0.0
 10
446.668030
 20
50.180130
 30
0.0
 10
446.445783
 20
50.498685
 30
0.0
 10
446.371700
 20
50.878630
 30
0.0
 10
446.441550
 20
51.232110
 30
0.0
 10
446.651100
 20
51.522090
 30
0.0
 10
447.336900
 20
51.784560
 30
0.0
 10
447.725310
 20
51.716828
 30
0.0
 10
448.035400
 20
51.513630
 30
0.0
 10
448.238598
 20
51.202480
 30
0.0
 10
448.306330
 20
50.802430
 30
0.0
  0
LWPOLYLINE
  5
1b3
100
AcDbEntity
  8
Calque_1
 62
7
100
AcDbPolyline
 90
6
 70
1
 10
446.545340
 20
50.976050
 30
0.0
 10
448.128600
 20
50.976050
 30
0.0
 10
447.861900
 20
51.437490
 30
0.0
 10
447.336970
 20
51.611050
 30
0.0
 10
446.816270
 20
51.437490
 30
0.0
 10
446.545340
 20
50.976050
 30
0.0
  0
LWPOLYLINE
  5
1b4
100
AcDbEntity
  8
Calque_1
 62
7
100
AcDbPolyline
 90
25
 70
1
 10
449.172580
 20
51.560250
 30
0.0
 10
449.460450
 20
51.716890
 30
0.0
 10
449.909180
 20
51.784590
 30
0.0
 10
450.396010
 20
51.636420
 30
0.0
 10
450.590750
 20
51.263890
 30
0.0
 10
450.590750
 20
50.133590
 30
0.0
 10
450.819350
 20
50.133590
 30
0.0
 10
450.933650
 20
50.048890
 30
0.0
 10
450.819350
 20
49.959990
 30
0.0
 10
450.417180
 20
49.959990
 30
0.0
 10
450.417180
 20
50.243630
 30
0.0
 10
450.026653
 20
49.980103
 30
0.0
 10
449.608610
 20
49.892260
 30
0.0
 10
449.130250
 20
50.040430
 30
0.0
 10
448.948210
 20
50.434130
 30
0.0
 10
449.193750
 20
50.878630
 30
0.0
 10
449.841450
 20
51.052190
 30
0.0
 10
450.417180
 20
50.963290
 30
0.0
 10
450.417180
 20
51.263860
 30
0.0
 10
450.273250
 20
51.513630
 30
0.0
 10
449.896480
 20
51.611030
 30
0.0
 10
449.494310
 20
51.543330
 30
0.0
 10
449.253010
 20
51.475630
 30
0.0
 10
449.193710
 20
51.501030
 30
0.0
 10
449.172510
 20
51.560330
 30
0.0
  0
LWPOLYLINE
  5
1b5
100
AcDbEntity
  8
Calque_1
 62
7
100
AcDbPolyline
 90
9
 70
1
 10
450.417180
 20
50.434190
 30
0.0
 10
450.417180
 20
50.815190
 30
0.0
 10
449.875310
 20
50.878690
 30
0.0
 10
449.329210
 20
50.751690
 30
0.0
 10
449.121780
 20
50.429950
 30
0.0
 10
449.253010
 20
50.163250
 30
0.0
 10
449.604380
 20
50.065850
 30
0.0
 10
450.015010
 20
50.150550
 30
0.0
 10
450.417180
 20
50.434190
 30
0.0
  0
LWPOLYLINE
  5
1b6
100
AcDbEntity
  8
Calque_1
 62
7
100
AcDbPolyline
 90
19
 70
1
 10
453.306890
 20
52.516990
 30
0.0
 10
453.306890
 20
50.133620
 30
0.0
 10
453.535490
 20
50.133620
 30
0.0
 10
453.649790
 20
50.048920
 30
0.0
 10
453.535490
 20
49.960020
 30
0.0
 10
453.133330
 20
49.960020
 30
0.0
 10
453.133330
 20
50.336790
 30
0.0
 10
452.790428
 20
50.003415
 30
0.0
 10
452.362860
 20
49.892290
 30
0.0
 10
451.715160
 20
50.171690
 30
0.0
 10
451.448460
 20
50.840560
 30
0.0
 10
451.715160
 20
51.505190
 30
0.0
 10
452.362860
 20
51.784590
 30
0.0
 10
452.788313
 20
51.674523
 30
0.0
 10
453.133330
 20
51.344320
 30
0.0
 10
453.133330
 20
52.343390
 30
0.0
 10
452.904730
 20
52.343390
 30
0.0
 10
452.790430
 20
52.432290
 30
0.0
 10
452.904730
 20
52.516990
 30
0.0
  0
LWPOLYLINE
  5
1b7
100
AcDbEntity
  8
Calque_1
 62
7
100
AcDbPolyline
 90
9
 70
1
 10
452.375560
 20
51.611050
 30
0.0
 10
451.842160
 20
51.386690
 30
0.0
 10
451.622030
 20
50.840590
 30
0.0
 10
451.842160
 20
50.290250
 30
0.0
 10
452.379790
 20
50.065890
 30
0.0
 10
452.913190
 20
50.290250
 30
0.0
 10
453.133330
 20
50.832120
 30
0.0
 10
452.913190
 20
51.386690
 30
0.0
 10
452.375560
 20
51.611050
 30
0.0
  0
LWPOLYLINE
  5
1b8
100
AcDbEntity
  8
Calque_1
 62
7
100
AcDbPolyline
 90
22
 70
1
 10
454.329710
 20
51.725350
 30
0.0
 10
454.329710
 20
51.378220
 30
0.0
 10
454.672610
 20
51.691490
 30
0.0
 10
455.087470
 20
51.784590
 30
0.0
 10
455.743640
 20
51.526360
 30
0.0
 10
456.010340
 20
50.895590
 30
0.0
 10
455.743640
 20
50.260590
 30
0.0
 10
455.087470
 20
50.002360
 30
0.0
 10
454.660965
 20
50.103960
 30
0.0
 10
454.329710
 20
50.408760
 30
0.0
 10
454.329710
 20
49.346190
 30
0.0
 10
454.744570
 20
49.346190
 30
0.0
 10
454.858870
 20
49.261490
 30
0.0
 10
454.744570
 20
49.172590
 30
0.0
 10
453.927540
 20
49.172590
 30
0.0
 10
453.813240
 20
49.261490
 30
0.0
 10
453.927540
 20
49.346190
 30
0.0
 10
454.156140
 20
49.346190
 30
0.0
 10
454.156140
 20
51.551760
 30
0.0
 10
453.927540
 20
51.551760
 30
0.0
 10
453.813240
 20
51.640660
 30
0.0
 10
453.927540
 20
51.725360
 30
0.0
  0
LWPOLYLINE
  5
1b9
100
AcDbEntity
  8
Calque_1
 62
7
100
AcDbPolyline
 90
9
 70
1
 10
455.083240
 20
51.611050
 30
0.0
 10
454.549840
 20
51.399390
 30
0.0
 10
454.329710
 20
50.895620
 30
0.0
 10
454.549840
 20
50.383390
 30
0.0
 10
455.083240
 20
50.175950
 30
0.0
 10
455.616640
 20
50.383390
 30
0.0
 10
455.836770
 20
50.887150
 30
0.0
 10
455.620870
 20
51.403620
 30
0.0
 10
455.083240
 20
51.611050
 30
0.0
  0
LWPOLYLINE
  5
1ba
100
AcDbEntity
  8
Calque_1
 62
7
100
AcDbPolyline
 90
32
 70
1
 10
458.108420
 20
51.179250
 30
0.0
 10
457.964490
 20
51.488290
 30
0.0
 10
457.587720
 20
51.611050
 30
0.0
 10
457.291390
 20
51.539050
 30
0.0
 10
457.003520
 20
51.268110
 30
0.0
 10
456.956920
 20
51.213110
 30
0.0
 10
456.956920
 20
50.133610
 30
0.0
 10
457.147420
 20
50.133610
 30
0.0
 10
457.265960
 20
50.048910
 30
0.0
 10
457.147420
 20
49.960010
 30
0.0
 10
456.588620
 20
49.960010
 30
0.0
 10
456.474320
 20
50.048910
 30
0.0
 10
456.588620
 20
50.133610
 30
0.0
 10
456.783360
 20
50.133610
 30
0.0
 10
456.783360
 20
52.343410
 30
0.0
 10
456.554760
 20
52.343410
 30
0.0
 10
456.440460
 20
52.432310
 30
0.0
 10
456.554760
 20
52.517010
 30
0.0
 10
456.956920
 20
52.517010
 30
0.0
 10
456.956920
 20
51.429040
 30
0.0
 10
457.265960
 20
51.704210
 30
0.0
 10
457.608860
 20
51.784610
 30
0.0
 10
458.091460
 20
51.615280
 30
0.0
 10
458.281960
 20
51.191940
 30
0.0
 10
458.281960
 20
50.133610
 30
0.0
 10
458.472460
 20
50.133610
 30
0.0
 10
458.590990
 20
50.048910
 30
0.0
 10
458.472460
 20
49.960010
 30
0.0
 10
457.917890
 20
49.960010
 30
0.0
 10
457.803590
 20
50.048910
 30
0.0
 10
457.917890
 20
50.133610
 30
0.0
 10
458.108390
 20
50.133610
 30
0.0
  0
LWPOLYLINE
  5
1bb
100
AcDbEntity
  8
Calque_1
 62
7
100
AcDbPolyline
 90
15
 70
1
 10
460.066800
 20
51.784620
 30
0.0
 10
460.441450
 20
51.714770
 30
0.0
 10
460.752600
 20
51.505220
 30
0.0
 10
460.962150
 20
51.198303
 30
0.0
 10
461.032000
 20
50.827890
 30
0.0
 10
460.961093
 20
50.466995
 30
0.0
 10
460.748370
 20
50.163250
 30
0.0
 10
460.066800
 20
49.892320
 30
0.0
 10
459.381000
 20
50.167490
 30
0.0
 10
459.171450
 20
50.473345
 30
0.0
 10
459.101600
 20
50.840590
 30
0.0
 10
459.171450
 20
51.201478
 30
0.0
 10
459.381000
 20
51.505220
 30
0.0
 10
459.694265
 20
51.714770
 30
0.0
 10
460.066800
 20
51.784620
 30
0.0
  0
LWPOLYLINE
  5
1bc
100
AcDbEntity
  8
Calque_1
 62
7
100
AcDbPolyline
 90
9
 70
1
 10
460.066800
 20
51.611050
 30
0.0
 10
459.503770
 20
51.386690
 30
0.0
 10
459.275170
 20
50.840590
 30
0.0
 10
459.503770
 20
50.290250
 30
0.0
 10
460.066800
 20
50.065890
 30
0.0
 10
460.625600
 20
50.290250
 30
0.0
 10
460.858430
 20
50.827890
 30
0.0
 10
460.629830
 20
51.386690
 30
0.0
 10
460.066800
 20
51.611050
 30
0.0
  0
LWPOLYLINE
  5
1bd
100
AcDbEntity
  8
Calque_1
 62
7
100
AcDbPolyline
 90
37
 70
1
 10
462.685580
 20
51.611050
 30
0.0
 10
462.537410
 20
51.594150
 30
0.0
 10
462.406180
 20
51.547550
 30
0.0
 10
462.304580
 20
51.488250
 30
0.0
 10
462.211480
 20
51.412050
 30
0.0
 10
462.143780
 20
51.335850
 30
0.0
 10
462.084480
 20
51.259650
 30
0.0
 10
462.042180
 20
51.204650
 30
0.0
 10
462.042180
 20
50.133620
 30
0.0
 10
462.232680
 20
50.133620
 30
0.0
 10
462.346980
 20
50.048920
 30
0.0
 10
462.232680
 20
49.960020
 30
0.0
 10
461.678120
 20
49.960020
 30
0.0
 10
461.559580
 20
50.048920
 30
0.0
 10
461.678120
 20
50.133620
 30
0.0
 10
461.868620
 20
50.133620
 30
0.0
 10
461.868620
 20
51.551790
 30
0.0
 10
461.724680
 20
51.551790
 30
0.0
 10
461.610380
 20
51.640690
 30
0.0
 10
461.724680
 20
51.725390
 30
0.0
 10
462.042180
 20
51.725390
 30
0.0
 10
462.042180
 20
51.433290
 30
0.0
 10
462.363920
 20
51.708460
 30
0.0
 10
462.702580
 20
51.784660
 30
0.0
 10
463.176720
 20
51.619560
 30
0.0
 10
463.367220
 20
51.208930
 30
0.0
 10
463.367220
 20
50.133660
 30
0.0
 10
463.511150
 20
50.133660
 30
0.0
 10
463.625450
 20
50.048960
 30
0.0
 10
463.511150
 20
49.960060
 30
0.0
 10
463.049720
 20
49.960060
 30
0.0
 10
462.935420
 20
50.048960
 30
0.0
 10
463.049720
 20
50.133660
 30
0.0
 10
463.193650
 20
50.133660
 30
0.0
 10
463.193650
 20
51.179290
 30
0.0
 10
463.053950
 20
51.484090
 30
0.0
 10
462.685650
 20
51.611090
 30
0.0
  0
LWPOLYLINE
  5
1be
100
AcDbEntity
  8
Calque_1
 62
7
100
AcDbPolyline
 90
22
 70
1
 10
466.074830
 20
50.802490
 30
0.0
 10
464.313760
 20
50.802490
 30
0.0
 10
464.593160
 20
50.264850
 30
0.0
 10
465.168890
 20
50.065890
 30
0.0
 10
465.575290
 20
50.129390
 30
0.0
 10
465.909730
 20
50.294490
 30
0.0
 10
465.977430
 20
50.324090
 30
0.0
 10
466.032430
 20
50.298690
 30
0.0
 10
466.057830
 20
50.239390
 30
0.0
 10
465.753030
 20
50.010790
 30
0.0
 10
465.164600
 20
49.892260
 30
0.0
 10
464.768783
 20
49.964228
 30
0.0
 10
464.436470
 20
50.180130
 30
0.0
 10
464.214215
 20
50.498685
 30
0.0
 10
464.140130
 20
50.878630
 30
0.0
 10
464.209980
 20
51.232110
 30
0.0
 10
464.419530
 20
51.522090
 30
0.0
 10
465.105330
 20
51.784560
 30
0.0
 10
465.493740
 20
51.716828
 30
0.0
 10
465.803830
 20
51.513630
 30
0.0
 10
466.007035
 20
51.202480
 30
0.0
 10
466.074770
 20
50.802430
 30
0.0
  0
LWPOLYLINE
  5
1bf
100
AcDbEntity
  8
Calque_1
 62
7
100
AcDbPolyline
 90
6
 70
1
 10
464.313760
 20
50.976050
 30
0.0
 10
465.897030
 20
50.976050
 30
0.0
 10
465.630330
 20
51.437490
 30
0.0
 10
465.105390
 20
51.611050
 30
0.0
 10
464.584690
 20
51.437490
 30
0.0
 10
464.313760
 20
50.976050
 30
0.0
  0
LWPOLYLINE
  5
1c0
100
AcDbEntity
  8
Calque_1
 62
7
100
AcDbPolyline
 90
38
 70
1
 10
468.325300
 20
50.455350
 30
0.0
 10
468.181370
 20
50.696650
 30
0.0
 10
467.834240
 20
50.810950
 30
0.0
 10
467.427840
 20
50.874450
 30
0.0
 10
467.080700
 20
51.014150
 30
0.0
 10
466.936770
 20
51.306250
 30
0.0
 10
467.139970
 20
51.649150
 30
0.0
 10
467.660670
 20
51.784620
 30
0.0
 10
468.240640
 20
51.589890
 30
0.0
 10
468.240640
 20
51.606790
 30
0.0
 10
468.329540
 20
51.725320
 30
0.0
 10
468.414240
 20
51.606790
 30
0.0
 10
468.414240
 20
51.314690
 30
0.0
 10
468.329540
 20
51.200390
 30
0.0
 10
468.240640
 20
51.297790
 30
0.0
 10
468.071300
 20
51.526390
 30
0.0
 10
467.677600
 20
51.611090
 30
0.0
 10
467.283900
 20
51.517990
 30
0.0
 10
467.127270
 20
51.293620
 30
0.0
 10
467.271200
 20
51.098890
 30
0.0
 10
467.618340
 20
51.001490
 30
0.0
 10
468.024740
 20
50.933790
 30
0.0
 10
468.371870
 20
50.772920
 30
0.0
 10
468.515800
 20
50.451190
 30
0.0
 10
468.278740
 20
50.049020
 30
0.0
 10
467.686070
 20
49.892390
 30
0.0
 10
467.021440
 20
50.120990
 30
0.0
 10
467.021440
 20
50.074390
 30
0.0
 10
466.936740
 20
49.960090
 30
0.0
 10
466.847840
 20
50.074390
 30
0.0
 10
466.847840
 20
50.425760
 30
0.0
 10
466.936740
 20
50.540060
 30
0.0
 10
467.021440
 20
50.446960
 30
0.0
 10
467.021440
 20
50.417360
 30
0.0
 10
467.211940
 20
50.167600
 30
0.0
 10
467.673370
 20
50.066000
 30
0.0
 10
468.139040
 20
50.176060
 30
0.0
 10
468.325300
 20
50.455460
 30
0.0
  0
LWPOLYLINE
  5
1c1
100
AcDbEntity
  8
Calque_1
 62
7
100
AcDbPolyline
 90
30
 70
1
 10
354.783070
 20
117.791520
 30
0.0
 10
354.641960
 20
117.808420
 30
0.0
 10
354.325870
 20
117.842320
 30
0.0
 10
354.004140
 20
117.859220
 30
0.0
 10
353.552580
 20
117.723750
 30
0.0
 10
353.377600
 20
117.379440
 30
0.0
 10
353.377600
 20
117.035130
 30
0.0
 10
354.444400
 20
117.035130
 30
0.0
 10
354.596800
 20
116.922240
 30
0.0
 10
354.444400
 20
116.803710
 30
0.0
 10
353.377600
 20
116.803710
 30
0.0
 10
353.377600
 20
114.912820
 30
0.0
 10
354.382310
 20
114.912820
 30
0.0
 10
354.534710
 20
114.799930
 30
0.0
 10
354.382310
 20
114.681400
 30
0.0
 10
352.593020
 20
114.681400
 30
0.0
 10
352.440620
 20
114.799930
 30
0.0
 10
352.593020
 20
114.912820
 30
0.0
 10
353.146180
 20
114.912820
 30
0.0
 10
353.146180
 20
116.803710
 30
0.0
 10
352.649470
 20
116.803710
 30
0.0
 10
352.497070
 20
116.922240
 30
0.0
 10
352.649470
 20
117.035130
 30
0.0
 10
353.146180
 20
117.035130
 30
0.0
 10
353.146180
 20
117.379440
 30
0.0
 10
353.388890
 20
117.887440
 30
0.0
 10
354.015420
 20
118.090640
 30
0.0
 10
354.800000
 20
118.017240
 30
0.0
 10
354.901600
 20
117.904350
 30
0.0
 10
354.783070
 20
117.791470
 30
0.0
  0
LWPOLYLINE
  5
1c2
100
AcDbEntity
  8
Calque_1
 62
7
100
AcDbPolyline
 90
13
 70
1
 10
357.038640
 20
117.035160
 30
0.0
 10
357.038640
 20
114.912850
 30
0.0
 10
357.941750
 20
114.912850
 30
0.0
 10
358.099800
 20
114.799960
 30
0.0
 10
357.941750
 20
114.681430
 30
0.0
 10
355.904110
 20
114.681430
 30
0.0
 10
355.751710
 20
114.799960
 30
0.0
 10
355.904110
 20
114.912850
 30
0.0
 10
356.807220
 20
114.912850
 30
0.0
 10
356.807220
 20
116.803740
 30
0.0
 10
356.141170
 20
116.803740
 30
0.0
 10
355.988770
 20
116.922270
 30
0.0
 10
356.141170
 20
117.035160
 30
0.0
  0
LWPOLYLINE
  5
1c3
100
AcDbEntity
  8
Calque_1
 62
7
100
AcDbPolyline
 90
4
 70
1
 10
357.027340
 20
118.203560
 30
0.0
 10
357.027340
 20
117.616540
 30
0.0
 10
356.694320
 20
117.616540
 30
0.0
 10
356.694320
 20
118.203560
 30
0.0
  0
LWPOLYLINE
  5
1c4
100
AcDbEntity
  8
Calque_1
 62
7
100
AcDbPolyline
 90
13
 70
1
 10
360.423100
 20
118.090670
 30
0.0
 10
360.423100
 20
114.912850
 30
0.0
 10
361.326210
 20
114.912850
 30
0.0
 10
361.484260
 20
114.799960
 30
0.0
 10
361.326210
 20
114.681430
 30
0.0
 10
359.288570
 20
114.681430
 30
0.0
 10
359.136170
 20
114.799960
 30
0.0
 10
359.288570
 20
114.912850
 30
0.0
 10
360.191680
 20
114.912850
 30
0.0
 10
360.191680
 20
117.859250
 30
0.0
 10
359.531280
 20
117.859250
 30
0.0
 10
359.378880
 20
117.977780
 30
0.0
 10
359.531280
 20
118.090670
 30
0.0
  0
LWPOLYLINE
  5
1c5
100
AcDbEntity
  8
Calque_1
 62
7
100
AcDbPolyline
 90
25
 70
1
 10
363.051210
 20
117.035160
 30
0.0
 10
364.292990
 20
117.035160
 30
0.0
 10
364.445390
 20
116.922270
 30
0.0
 10
364.292990
 20
116.803740
 30
0.0
 10
363.051210
 20
116.803740
 30
0.0
 10
363.051210
 20
115.296670
 30
0.0
 10
363.220540
 20
114.952360
 30
0.0
 10
363.683390
 20
114.822540
 30
0.0
 10
364.185740
 20
114.884640
 30
0.0
 10
364.620360
 20
115.048330
 30
0.0
 10
364.710660
 20
115.082230
 30
0.0
 10
364.784060
 20
115.048330
 30
0.0
 10
364.817960
 20
114.969330
 30
0.0
 10
364.434140
 20
114.715330
 30
0.0
 10
363.694720
 20
114.591160
 30
0.0
 10
363.056890
 20
114.777420
 30
0.0
 10
362.819830
 20
115.285420
 30
0.0
 10
362.819830
 20
116.803780
 30
0.0
 10
362.402140
 20
116.803780
 30
0.0
 10
362.244090
 20
116.922310
 30
0.0
 10
362.402140
 20
117.035200
 30
0.0
 10
362.819830
 20
117.035200
 30
0.0
 10
362.819830
 20
117.706890
 30
0.0
 10
362.938360
 20
117.859290
 30
0.0
 10
363.051250
 20
117.706890
 30
0.0
  0
LWPOLYLINE
  5
1c6
100
AcDbEntity
  8
Calque_1
 62
7
100
AcDbPolyline
 90
24
 70
1
 10
368.320920
 20
115.804670
 30
0.0
 10
365.972830
 20
115.804670
 30
0.0
 10
366.097013
 20
115.402505
 30
0.0
 10
366.345360
 20
115.087830
 30
0.0
 10
367.113000
 20
114.822540
 30
0.0
 10
367.654870
 20
114.907240
 30
0.0
 10
368.100780
 20
115.127380
 30
0.0
 10
368.191080
 20
115.166880
 30
0.0
 10
368.264480
 20
115.132980
 30
0.0
 10
368.298380
 20
115.053980
 30
0.0
 10
367.891980
 20
114.749180
 30
0.0
 10
367.107400
 20
114.591140
 30
0.0
 10
366.579645
 20
114.687095
 30
0.0
 10
366.136560
 20
114.974960
 30
0.0
 10
365.840220
 20
115.399703
 30
0.0
 10
365.741440
 20
115.906290
 30
0.0
 10
365.834575
 20
116.377605
 30
0.0
 10
366.113980
 20
116.764250
 30
0.0
 10
366.528845
 20
117.026713
 30
0.0
 10
367.028380
 20
117.114200
 30
0.0
 10
367.546258
 20
117.023890
 30
0.0
 10
367.959710
 20
116.752960
 30
0.0
 10
368.230648
 20
116.338093
 30
0.0
 10
368.320960
 20
115.804690
 30
0.0
  0
LWPOLYLINE
  5
1c7
100
AcDbEntity
  8
Calque_1
 62
7
100
AcDbPolyline
 90
6
 70
1
 10
365.972830
 20
116.036090
 30
0.0
 10
368.083850
 20
116.036090
 30
0.0
 10
367.728250
 20
116.651340
 30
0.0
 10
367.028340
 20
116.882760
 30
0.0
 10
366.334070
 20
116.651340
 30
0.0
 10
365.972830
 20
116.036090
 30
0.0
  0
LWPOLYLINE
  5
1c8
100
AcDbEntity
  8
Calque_1
 62
7
100
AcDbPolyline
 90
25
 70
1
 10
371.705380
 20
116.623120
 30
0.0
 10
371.530400
 20
116.741650
 30
0.0
 10
371.242530
 20
116.860180
 30
0.0
 10
370.841780
 20
116.724720
 30
0.0
 10
370.170090
 20
116.160270
 30
0.0
 10
370.170090
 20
114.912850
 30
0.0
 10
371.180440
 20
114.912850
 30
0.0
 10
371.332840
 20
114.794320
 30
0.0
 10
371.180440
 20
114.681430
 30
0.0
 10
369.396800
 20
114.681430
 30
0.0
 10
369.244400
 20
114.799960
 30
0.0
 10
369.396800
 20
114.912850
 30
0.0
 10
369.938670
 20
114.912850
 30
0.0
 10
369.938670
 20
116.803740
 30
0.0
 10
369.515330
 20
116.803740
 30
0.0
 10
369.362930
 20
116.922270
 30
0.0
 10
369.515330
 20
117.035160
 30
0.0
 10
370.170090
 20
117.035160
 30
0.0
 10
370.170090
 20
116.459430
 30
0.0
 10
370.802270
 20
116.950490
 30
0.0
 10
371.259470
 20
117.091600
 30
0.0
 10
371.654580
 20
116.956140
 30
0.0
 10
371.823910
 20
116.741650
 30
0.0
 10
371.790010
 20
116.656950
 30
0.0
 10
371.705310
 20
116.623050
 30
0.0
  0
LWPOLYLINE
  5
1c9
100
AcDbEntity
  8
Calque_1
 62
7
100
AcDbPolyline
 90
24
 70
1
 10
351.576400
 20
43.804660
 30
0.0
 10
349.228310
 20
43.804660
 30
0.0
 10
349.352495
 20
43.402493
 30
0.0
 10
349.600850
 20
43.087810
 30
0.0
 10
350.368490
 20
42.822520
 30
0.0
 10
350.910360
 20
42.907220
 30
0.0
 10
351.356270
 20
43.127350
 30
0.0
 10
351.446570
 20
43.166850
 30
0.0
 10
351.519970
 20
43.132950
 30
0.0
 10
351.553870
 20
43.053950
 30
0.0
 10
351.147470
 20
42.749150
 30
0.0
 10
350.362900
 20
42.591100
 30
0.0
 10
349.835143
 20
42.687055
 30
0.0
 10
349.392050
 20
42.974920
 30
0.0
 10
349.095718
 20
43.399670
 30
0.0
 10
348.996940
 20
43.906260
 30
0.0
 10
349.090073
 20
44.377568
 30
0.0
 10
349.369470
 20
44.764210
 30
0.0
 10
349.784340
 20
45.026680
 30
0.0
 10
350.283870
 20
45.114170
 30
0.0
 10
350.801750
 20
45.023858
 30
0.0
 10
351.215210
 20
44.752920
 30
0.0
 10
351.486140
 20
44.338055
 30
0.0
 10
351.576450
 20
43.804660
 30
0.0
  0
LWPOLYLINE
  5
1ca
100
AcDbEntity
  8
Calque_1
 62
7
100
AcDbPolyline
 90
6
 70
1
 10
349.228310
 20
44.036080
 30
0.0
 10
351.339340
 20
44.036080
 30
0.0
 10
350.983740
 20
44.651320
 30
0.0
 10
350.283820
 20
44.882750
 30
0.0
 10
349.589560
 20
44.651320
 30
0.0
 10
349.228310
 20
44.036080
 30
0.0
  0
LWPOLYLINE
  5
1cb
100
AcDbEntity
  8
Calque_1
 62
7
100
AcDbPolyline
 90
37
 70
1
 10
353.826330
 20
44.882750
 30
0.0
 10
353.628780
 20
44.860150
 30
0.0
 10
353.453800
 20
44.798050
 30
0.0
 10
353.318330
 20
44.719050
 30
0.0
 10
353.194150
 20
44.617450
 30
0.0
 10
353.103850
 20
44.515850
 30
0.0
 10
353.024850
 20
44.414250
 30
0.0
 10
352.968450
 20
44.340850
 30
0.0
 10
352.968450
 20
42.912800
 30
0.0
 10
353.222450
 20
42.912800
 30
0.0
 10
353.374850
 20
42.799920
 30
0.0
 10
353.222450
 20
42.681380
 30
0.0
 10
352.483020
 20
42.681380
 30
0.0
 10
352.324980
 20
42.799920
 30
0.0
 10
352.483020
 20
42.912800
 30
0.0
 10
352.737020
 20
42.912800
 30
0.0
 10
352.737020
 20
44.803690
 30
0.0
 10
352.545110
 20
44.803690
 30
0.0
 10
352.392710
 20
44.922230
 30
0.0
 10
352.545110
 20
45.035120
 30
0.0
 10
352.968450
 20
45.035120
 30
0.0
 10
352.968450
 20
44.645650
 30
0.0
 10
353.397420
 20
45.012540
 30
0.0
 10
353.848980
 20
45.114140
 30
0.0
 10
354.481160
 20
44.894000
 30
0.0
 10
354.735160
 20
44.346490
 30
0.0
 10
354.735160
 20
42.912800
 30
0.0
 10
354.927070
 20
42.912800
 30
0.0
 10
355.079470
 20
42.799920
 30
0.0
 10
354.927070
 20
42.681380
 30
0.0
 10
354.311820
 20
42.681380
 30
0.0
 10
354.159420
 20
42.799920
 30
0.0
 10
354.311820
 20
42.912800
 30
0.0
 10
354.503730
 20
42.912800
 30
0.0
 10
354.503730
 20
44.306980
 30
0.0
 10
354.317470
 20
44.713380
 30
0.0
 10
353.826400
 20
44.882720
 30
0.0
  0
LWPOLYLINE
  5
1cc
100
AcDbEntity
  8
Calque_1
 62
7
100
AcDbPolyline
 90
20
 70
1
 10
357.306750
 20
42.681410
 30
0.0
 10
356.911640
 20
42.681410
 30
0.0
 10
355.963370
 20
44.803720
 30
0.0
 10
355.731950
 20
44.803720
 30
0.0
 10
355.579550
 20
44.922260
 30
0.0
 10
355.731950
 20
45.035150
 30
0.0
 10
356.584260
 20
45.035150
 30
0.0
 10
356.742300
 20
44.922260
 30
0.0
 10
356.584260
 20
44.803720
 30
0.0
 10
356.217370
 20
44.803720
 30
0.0
 10
357.064040
 20
42.912830
 30
0.0
 10
357.171280
 20
42.912830
 30
0.0
 10
358.001010
 20
44.803720
 30
0.0
 10
357.617190
 20
44.803720
 30
0.0
 10
357.464790
 20
44.922260
 30
0.0
 10
357.617190
 20
45.035150
 30
0.0
 10
358.475150
 20
45.035150
 30
0.0
 10
358.627550
 20
44.922260
 30
0.0
 10
358.475150
 20
44.803720
 30
0.0
 10
358.243730
 20
44.803720
 30
0.0
  0
LWPOLYLINE
  5
1cd
100
AcDbEntity
  8
Calque_1
 62
7
100
AcDbPolyline
 90
24
 70
1
 10
361.729790
 20
43.804660
 30
0.0
 10
359.381700
 20
43.804660
 30
0.0
 10
359.505883
 20
43.402493
 30
0.0
 10
359.754230
 20
43.087810
 30
0.0
 10
360.521880
 20
42.822520
 30
0.0
 10
361.063740
 20
42.907220
 30
0.0
 10
361.509650
 20
43.127350
 30
0.0
 10
361.599950
 20
43.166850
 30
0.0
 10
361.673350
 20
43.132950
 30
0.0
 10
361.707250
 20
43.053950
 30
0.0
 10
361.300850
 20
42.749150
 30
0.0
 10
360.516270
 20
42.591100
 30
0.0
 10
359.988515
 20
42.687055
 30
0.0
 10
359.545430
 20
42.974920
 30
0.0
 10
359.249098
 20
43.399670
 30
0.0
 10
359.150320
 20
43.906260
 30
0.0
 10
359.243453
 20
44.377568
 30
0.0
 10
359.522850
 20
44.764210
 30
0.0
 10
359.937715
 20
45.026680
 30
0.0
 10
360.437250
 20
45.114170
 30
0.0
 10
360.955128
 20
45.023858
 30
0.0
 10
361.368580
 20
44.752920
 30
0.0
 10
361.639518
 20
44.338055
 30
0.0
 10
361.729830
 20
43.804660
 30
0.0
  0
LWPOLYLINE
  5
1ce
100
AcDbEntity
  8
Calque_1
 62
7
100
AcDbPolyline
 90
6
 70
1
 10
359.381700
 20
44.036080
 30
0.0
 10
361.492720
 20
44.036080
 30
0.0
 10
361.137120
 20
44.651320
 30
0.0
 10
360.437210
 20
44.882750
 30
0.0
 10
359.742940
 20
44.651320
 30
0.0
 10
359.381700
 20
44.036080
 30
0.0
  0
LWPOLYLINE
  5
1cf
100
AcDbEntity
  8
Calque_1
 62
7
100
AcDbPolyline
 90
13
 70
1
 10
363.985360
 20
46.090660
 30
0.0
 10
363.985360
 20
42.912830
 30
0.0
 10
364.888470
 20
42.912830
 30
0.0
 10
365.046520
 20
42.799950
 30
0.0
 10
364.888470
 20
42.681410
 30
0.0
 10
362.850830
 20
42.681410
 30
0.0
 10
362.698430
 20
42.799950
 30
0.0
 10
362.850830
 20
42.912830
 30
0.0
 10
363.753940
 20
42.912830
 30
0.0
 10
363.753940
 20
45.859230
 30
0.0
 10
363.093540
 20
45.859230
 30
0.0
 10
362.941140
 20
45.977770
 30
0.0
 10
363.093540
 20
46.090660
 30
0.0
  0
LWPOLYLINE
  5
1d0
100
AcDbEntity
  8
Calque_1
 62
7
100
AcDbPolyline
 90
17
 70
1
 10
367.256930
 20
45.114170
 30
0.0
 10
367.756465
 20
45.021035
 30
0.0
 10
368.171330
 20
44.741630
 30
0.0
 10
368.450735
 20
44.332413
 30
0.0
 10
368.543870
 20
43.838520
 30
0.0
 10
368.449325
 20
43.357333
 30
0.0
 10
368.165690
 20
42.952350
 30
0.0
 10
367.749410
 20
42.681413
 30
0.0
 10
367.256930
 20
42.591100
 30
0.0
 10
366.760220
 20
42.682823
 30
0.0
 10
366.342530
 20
42.957990
 30
0.0
 10
366.063133
 20
43.365803
 30
0.0
 10
365.970000
 20
43.855460
 30
0.0
 10
366.063133
 20
44.336648
 30
0.0
 10
366.342530
 20
44.741630
 30
0.0
 10
366.760220
 20
45.021035
 30
0.0
 10
367.256930
 20
45.114170
 30
0.0
  0
LWPOLYLINE
  5
1d1
100
AcDbEntity
  8
Calque_1
 62
7
100
AcDbPolyline
 90
17
 70
1
 10
367.256930
 20
44.882750
 30
0.0
 10
366.849123
 20
44.807960
 30
0.0
 10
366.506220
 20
44.583590
 30
0.0
 10
366.277620
 20
44.251978
 30
0.0
 10
366.201420
 20
43.855460
 30
0.0
 10
366.277620
 20
43.457525
 30
0.0
 10
366.506220
 20
43.121680
 30
0.0
 10
366.849123
 20
42.897310
 30
0.0
 10
367.256930
 20
42.822520
 30
0.0
 10
367.660513
 20
42.897310
 30
0.0
 10
368.002000
 20
43.121680
 30
0.0
 10
368.234838
 20
43.450465
 30
0.0
 10
368.312450
 20
43.838520
 30
0.0
 10
368.236250
 20
44.247743
 30
0.0
 10
368.007650
 20
44.583590
 30
0.0
 10
367.667570
 20
44.807960
 30
0.0
 10
367.256930
 20
44.882750
 30
0.0
  0
LWPOLYLINE
  5
1d2
100
AcDbEntity
  8
Calque_1
 62
7
100
AcDbPolyline
 90
26
 70
1
 10
369.760860
 20
45.035150
 30
0.0
 10
369.760860
 20
44.572300
 30
0.0
 10
370.218060
 20
44.989990
 30
0.0
 10
370.771220
 20
45.114170
 30
0.0
 10
371.252408
 20
45.028093
 30
0.0
 10
371.646110
 20
44.769860
 30
0.0
 10
371.912810
 20
44.390268
 30
0.0
 10
372.001710
 20
43.928830
 30
0.0
 10
371.912810
 20
43.465990
 30
0.0
 10
371.646110
 20
43.082170
 30
0.0
 10
371.249588
 20
42.823938
 30
0.0
 10
370.771220
 20
42.737860
 30
0.0
 10
370.202540
 20
42.873325
 30
0.0
 10
369.760860
 20
43.279720
 30
0.0
 10
369.760860
 20
41.862970
 30
0.0
 10
370.314020
 20
41.862970
 30
0.0
 10
370.466420
 20
41.750080
 30
0.0
 10
370.314020
 20
41.631550
 30
0.0
 10
369.224640
 20
41.631550
 30
0.0
 10
369.072240
 20
41.750080
 30
0.0
 10
369.224640
 20
41.862970
 30
0.0
 10
369.529440
 20
41.862970
 30
0.0
 10
369.529440
 20
44.803720
 30
0.0
 10
369.224640
 20
44.803720
 30
0.0
 10
369.072240
 20
44.922260
 30
0.0
 10
369.224640
 20
45.035150
 30
0.0
  0
LWPOLYLINE
  5
1d3
100
AcDbEntity
  8
Calque_1
 62
7
100
AcDbPolyline
 90
17
 70
1
 10
370.765570
 20
44.882750
 30
0.0
 10
370.378925
 20
44.812193
 30
0.0
 10
370.054370
 20
44.600520
 30
0.0
 10
369.834238
 20
44.294313
 30
0.0
 10
369.760860
 20
43.928830
 30
0.0
 10
369.834238
 20
43.557713
 30
0.0
 10
370.054370
 20
43.245860
 30
0.0
 10
370.378925
 20
43.038425
 30
0.0
 10
370.765570
 20
42.969280
 30
0.0
 10
371.152215
 20
43.038425
 30
0.0
 10
371.476770
 20
43.245860
 30
0.0
 10
371.696903
 20
43.552068
 30
0.0
 10
371.770280
 20
43.917550
 30
0.0
 10
371.698315
 20
44.295725
 30
0.0
 10
371.482420
 20
44.606170
 30
0.0
 10
371.159273
 20
44.813605
 30
0.0
 10
370.765570
 20
44.882750
 30
0.0
  0
LWPOLYLINE
  5
1d4
100
AcDbEntity
  8
Calque_1
 62
7
100
AcDbPolyline
 90
24
 70
1
 10
375.267630
 20
43.804660
 30
0.0
 10
372.919550
 20
43.804660
 30
0.0
 10
373.043733
 20
43.402493
 30
0.0
 10
373.292080
 20
43.087810
 30
0.0
 10
374.059720
 20
42.822520
 30
0.0
 10
374.601590
 20
42.907220
 30
0.0
 10
375.047500
 20
43.127350
 30
0.0
 10
375.137800
 20
43.166850
 30
0.0
 10
375.211200
 20
43.132950
 30
0.0
 10
375.245100
 20
43.053950
 30
0.0
 10
374.838700
 20
42.749150
 30
0.0
 10
374.054120
 20
42.591100
 30
0.0
 10
373.526363
 20
42.687055
 30
0.0
 10
373.083270
 20
42.974920
 30
0.0
 10
372.786938
 20
43.399670
 30
0.0
 10
372.688160
 20
43.906260
 30
0.0
 10
372.781295
 20
44.377568
 30
0.0
 10
373.060700
 20
44.764210
 30
0.0
 10
373.475565
 20
45.026680
 30
0.0
 10
373.975100
 20
45.114170
 30
0.0
 10
374.492978
 20
45.023858
 30
0.0
 10
374.906430
 20
44.752920
 30
0.0
 10
375.177360
 20
44.338055
 30
0.0
 10
375.267670
 20
43.804660
 30
0.0
  0
LWPOLYLINE
  5
1d5
100
AcDbEntity
  8
Calque_1
 62
7
100
AcDbPolyline
 90
6
 70
1
 10
372.919550
 20
44.036080
 30
0.0
 10
375.030570
 20
44.036080
 30
0.0
 10
374.674970
 20
44.651320
 30
0.0
 10
373.975060
 20
44.882750
 30
0.0
 10
373.280790
 20
44.651320
 30
0.0
 10
372.919550
 20
44.036080
 30
0.0
  0
LWPOLYLINE
  5
1d6
100
AcDbEntity
  8
Calque_1
 62
7
100
AcDbPolyline
 90
9
 70
1
 10
10.285224
 20
20.763160
 30
0.0
 10
10.742424
 20
20.576890
 30
0.0
 10
10.928690
 20
20.125340
 30
0.0
 10
10.739602
 20
19.682250
 30
0.0
 10
10.285224
 20
19.501630
 30
0.0
 10
9.828024
 20
19.685070
 30
0.0
 10
9.641757
 20
20.133810
 30
0.0
 10
9.828024
 20
20.576890
 30
0.0
 10
10.285224
 20
20.763160
 30
0.0
  0
LWPOLYLINE
  5
1d7
100
AcDbEntity
  8
Calque_1
 62
7
100
AcDbPolyline
 90
9
 70
1
 10
10.285224
 20
20.647450
 30
0.0
 10
9.909868
 20
20.497870
 30
0.0
 10
9.757468
 20
20.133810
 30
0.0
 10
9.909868
 20
19.766920
 30
0.0
 10
10.285224
 20
19.617340
 30
0.0
 10
10.657757
 20
19.766920
 30
0.0
 10
10.812979
 20
20.125340
 30
0.0
 10
10.660579
 20
20.497870
 30
0.0
 10
10.285224
 20
20.647450
 30
0.0
  0
LWPOLYLINE
  5
1d8
100
AcDbEntity
  8
Calque_1
 62
7
100
AcDbPolyline
 90
38
 70
1
 10
12.406432
 20
19.876980
 30
0.0
 10
12.310472
 20
20.037850
 30
0.0
 10
12.079050
 20
20.114050
 30
0.0
 10
11.808116
 20
20.156350
 30
0.0
 10
11.576694
 20
20.249450
 30
0.0
 10
11.480734
 20
20.444180
 30
0.0
 10
11.616200
 20
20.672780
 30
0.0
 10
11.963334
 20
20.763080
 30
0.0
 10
12.349978
 20
20.633260
 30
0.0
 10
12.349978
 20
20.644560
 30
0.0
 10
12.409248
 20
20.723560
 30
0.0
 10
12.465688
 20
20.644560
 30
0.0
 10
12.465688
 20
20.449820
 30
0.0
 10
12.409248
 20
20.373620
 30
0.0
 10
12.349978
 20
20.438520
 30
0.0
 10
12.237089
 20
20.590920
 30
0.0
 10
11.974622
 20
20.647320
 30
0.0
 10
11.712156
 20
20.585220
 30
0.0
 10
11.607734
 20
20.435640
 30
0.0
 10
11.703694
 20
20.305820
 30
0.0
 10
11.935116
 20
20.240920
 30
0.0
 10
12.206050
 20
20.195720
 30
0.0
 10
12.437472
 20
20.088480
 30
0.0
 10
12.533432
 20
19.873990
 30
0.0
 10
12.375388
 20
19.605880
 30
0.0
 10
11.980277
 20
19.501460
 30
0.0
 10
11.537188
 20
19.653860
 30
0.0
 10
11.537188
 20
19.622860
 30
0.0
 10
11.480748
 20
19.546660
 30
0.0
 10
11.421478
 20
19.622860
 30
0.0
 10
11.421478
 20
19.857110
 30
0.0
 10
11.480748
 20
19.933310
 30
0.0
 10
11.537188
 20
19.871210
 30
0.0
 10
11.537188
 20
19.851410
 30
0.0
 10
11.664188
 20
19.684900
 30
0.0
 10
11.971810
 20
19.617200
 30
0.0
 10
12.282255
 20
19.690600
 30
0.0
 10
12.406432
 20
19.876860
 30
0.0
  0
LWPOLYLINE
  5
1d9
100
AcDbEntity
  8
Calque_1
 62
7
100
AcDbPolyline
 90
26
 70
1
 10
14.332908
 20
19.795140
 30
0.0
 10
14.284928
 20
19.721740
 30
0.0
 10
14.157928
 20
19.625740
 30
0.0
 10
13.954728
 20
19.538240
 30
0.0
 10
13.695084
 20
19.501540
 30
0.0
 10
13.237884
 20
19.676520
 30
0.0
 10
13.060084
 20
20.122430
 30
0.0
 10
13.243528
 20
20.582450
 30
0.0
 10
13.709195
 20
20.763070
 30
0.0
 10
14.149461
 20
20.607850
 30
0.0
 10
14.149461
 20
20.644550
 30
0.0
 10
14.208731
 20
20.723550
 30
0.0
 10
14.265181
 20
20.644550
 30
0.0
 10
14.265181
 20
20.387730
 30
0.0
 10
14.208731
 20
20.311530
 30
0.0
 10
14.149461
 20
20.379230
 30
0.0
 10
14.008350
 20
20.568320
 30
0.0
 10
13.700728
 20
20.647320
 30
0.0
 10
13.319728
 20
20.500560
 30
0.0
 10
13.175795
 20
20.125210
 30
0.0
 10
13.322550
 20
19.758320
 30
0.0
 10
13.700728
 20
19.617210
 30
0.0
 10
14.228484
 20
19.820410
 30
0.0
 10
14.279284
 20
19.848610
 30
0.0
 10
14.315974
 20
19.831710
 30
0.0
 10
14.332904
 20
19.795010
 30
0.0
  0
LWPOLYLINE
  5
1da
100
AcDbEntity
  8
Calque_1
 62
7
100
AcDbPolyline
 90
35
 70
1
 10
16.560259
 20
21.036920
 30
0.0
 10
16.613879
 20
21.124420
 30
0.0
 10
16.791679
 20
21.234480
 30
0.0
 10
17.056968
 20
21.290980
 30
0.0
 10
17.409745
 20
21.163980
 30
0.0
 10
17.553679
 20
20.856350
 30
0.0
 10
17.460549
 20
20.596710
 30
0.0
 10
17.262994
 20
20.472530
 30
0.0
 10
17.522638
 20
20.283440
 30
0.0
 10
17.615768
 20
20.020980
 30
0.0
 10
17.440790
 20
19.654090
 30
0.0
 10
17.025923
 20
19.504510
 30
0.0
 10
16.667501
 20
19.586310
 30
0.0
 10
16.478412
 20
19.741540
 30
0.0
 10
16.495342
 20
19.778240
 30
0.0
 10
16.532032
 20
19.795140
 30
0.0
 10
16.611052
 20
19.749940
 30
0.0
 10
16.780385
 20
19.662440
 30
0.0
 10
17.028740
 20
19.620140
 30
0.0
 10
17.358940
 20
19.738670
 30
0.0
 10
17.500052
 20
20.020900
 30
0.0
 10
17.350474
 20
20.305940
 30
0.0
 10
16.994874
 20
20.427300
 30
0.0
 10
16.918674
 20
20.486600
 30
0.0
 10
16.994874
 20
20.543000
 30
0.0
 10
17.327191
 20
20.620610
 30
0.0
 10
17.437963
 20
20.853440
 30
0.0
 10
17.327896
 20
21.082040
 30
0.0
 10
17.054140
 20
21.175140
 30
0.0
 10
16.850940
 20
21.144140
 30
0.0
 10
16.735229
 20
21.079240
 30
0.0
 10
16.673139
 20
21.011540
 30
0.0
 10
16.616699
 20
20.983340
 30
0.0
 10
16.577189
 20
20.997440
 30
0.0
 10
16.560259
 20
21.036940
 30
0.0
  0
LWPOLYLINE
  5
1db
100
AcDbEntity
  8
Calque_1
 62
7
100
AcDbPolyline
 90
18
 70
1
 10
67.138165
 20
21.019980
 30
0.0
 10
67.138165
 20
19.662490
 30
0.0
 10
67.908632
 20
19.662490
 30
0.0
 10
67.908632
 20
20.114050
 30
0.0
 10
67.967902
 20
20.190250
 30
0.0
 10
68.024342
 20
20.114050
 30
0.0
 10
68.024342
 20
19.546780
 30
0.0
 10
66.751520
 20
19.546780
 30
0.0
 10
66.675320
 20
19.606080
 30
0.0
 10
66.751520
 20
19.662480
 30
0.0
 10
67.022454
 20
19.662480
 30
0.0
 10
67.022454
 20
21.019970
 30
0.0
 10
66.751520
 20
21.019970
 30
0.0
 10
66.675320
 20
21.079270
 30
0.0
 10
66.751520
 20
21.135670
 30
0.0
 10
67.409098
 20
21.135670
 30
0.0
 10
67.485298
 20
21.079270
 30
0.0
 10
67.409098
 20
21.019970
 30
0.0
  0
LWPOLYLINE
  5
1dc
100
AcDbEntity
  8
Calque_1
 62
7
100
AcDbPolyline
 90
28
 70
1
 10
68.655418
 20
20.314430
 30
0.0
 10
68.655418
 20
19.662490
 30
0.0
 10
69.044885
 20
19.662490
 30
0.0
 10
69.123905
 20
19.606090
 30
0.0
 10
69.044885
 20
19.546790
 30
0.0
 10
68.387307
 20
19.546790
 30
0.0
 10
68.311107
 20
19.606090
 30
0.0
 10
68.387307
 20
19.662490
 30
0.0
 10
68.539707
 20
19.662490
 30
0.0
 10
68.539707
 20
21.019980
 30
0.0
 10
68.387307
 20
21.019980
 30
0.0
 10
68.311107
 20
21.079280
 30
0.0
 10
68.387307
 20
21.135680
 30
0.0
 10
69.657307
 20
21.135680
 30
0.0
 10
69.657307
 20
20.743400
 30
0.0
 10
69.598037
 20
20.667200
 30
0.0
 10
69.541597
 20
20.743400
 30
0.0
 10
69.541597
 20
21.019970
 30
0.0
 10
68.655419
 20
21.019970
 30
0.0
 10
68.655419
 20
20.430130
 30
0.0
 10
69.064641
 20
20.430130
 30
0.0
 10
69.064641
 20
20.557130
 30
0.0
 10
69.121081
 20
20.633330
 30
0.0
 10
69.180351
 20
20.557130
 30
0.0
 10
69.180351
 20
20.187420
 30
0.0
 10
69.121081
 20
20.111220
 30
0.0
 10
69.064641
 20
20.187420
 30
0.0
 10
69.064641
 20
20.314420
 30
0.0
  0
LWPOLYLINE
  5
1dd
100
AcDbEntity
  8
Calque_1
 62
7
100
AcDbPolyline
 90
9
 70
1
 10
70.728649
 20
21.172380
 30
0.0
 10
71.228182
 20
20.926850
 30
0.0
 10
71.431382
 20
20.325720
 30
0.0
 10
71.225360
 20
19.741520
 30
0.0
 10
70.728649
 20
19.501630
 30
0.0
 10
70.229116
 20
19.744340
 30
0.0
 10
70.025916
 20
20.337010
 30
0.0
 10
70.229116
 20
20.929670
 30
0.0
 10
70.728649
 20
21.172380
 30
0.0
  0
LWPOLYLINE
  5
1de
100
AcDbEntity
  8
Calque_1
 62
7
100
AcDbPolyline
 90
9
 70
1
 10
70.728649
 20
21.056670
 30
0.0
 10
70.313782
 20
20.845010
 30
0.0
 10
70.141627
 20
20.337010
 30
0.0
 10
70.313782
 20
19.829010
 30
0.0
 10
70.728649
 20
19.617340
 30
0.0
 10
71.140693
 20
19.826180
 30
0.0
 10
71.315671
 20
20.328540
 30
0.0
 10
71.143516
 20
20.845010
 30
0.0
 10
70.728649
 20
21.056670
 30
0.0
  0
LWPOLYLINE
  5
1df
100
AcDbEntity
  8
Calque_1
 62
7
100
AcDbPolyline
 90
30
 70
1
 10
283.539050
 20
95.649510
 30
0.0
 10
283.450850
 20
95.660110
 30
0.0
 10
283.253290
 20
95.681310
 30
0.0
 10
283.052210
 20
95.691910
 30
0.0
 10
282.769990
 20
95.607210
 30
0.0
 10
282.660630
 20
95.392010
 30
0.0
 10
282.660630
 20
95.176820
 30
0.0
 10
283.327380
 20
95.176820
 30
0.0
 10
283.422680
 20
95.106220
 30
0.0
 10
283.327380
 20
95.032120
 30
0.0
 10
282.660630
 20
95.032120
 30
0.0
 10
282.660630
 20
93.850310
 30
0.0
 10
283.288570
 20
93.850310
 30
0.0
 10
283.383770
 20
93.779810
 30
0.0
 10
283.288570
 20
93.705710
 30
0.0
 10
282.170270
 20
93.705710
 30
0.0
 10
282.075070
 20
93.779810
 30
0.0
 10
282.170270
 20
93.850310
 30
0.0
 10
282.515990
 20
93.850310
 30
0.0
 10
282.515990
 20
95.032120
 30
0.0
 10
282.205540
 20
95.032120
 30
0.0
 10
282.110240
 20
95.106220
 30
0.0
 10
282.205540
 20
95.176820
 30
0.0
 10
282.515990
 20
95.176820
 30
0.0
 10
282.515990
 20
95.392010
 30
0.0
 10
282.667680
 20
95.709510
 30
0.0
 10
283.059270
 20
95.836510
 30
0.0
 10
283.549630
 20
95.790610
 30
0.0
 10
283.613130
 20
95.720010
 30
0.0
 10
283.539030
 20
95.649510
 30
0.0
  0
LWPOLYLINE
  5
1e0
100
AcDbEntity
  8
Calque_1
 62
7
100
AcDbPolyline
 90
13
 70
1
 10
284.948790
 20
95.176790
 30
0.0
 10
284.948790
 20
93.850340
 30
0.0
 10
285.513230
 20
93.850340
 30
0.0
 10
285.612030
 20
93.779840
 30
0.0
 10
285.513230
 20
93.705740
 30
0.0
 10
284.239700
 20
93.705740
 30
0.0
 10
284.144400
 20
93.779840
 30
0.0
 10
284.239700
 20
93.850340
 30
0.0
 10
284.804150
 20
93.850340
 30
0.0
 10
284.804150
 20
95.032150
 30
0.0
 10
284.387870
 20
95.032150
 30
0.0
 10
284.292570
 20
95.106250
 30
0.0
 10
284.387870
 20
95.176850
 30
0.0
  0
LWPOLYLINE
  5
1e1
100
AcDbEntity
  8
Calque_1
 62
7
100
AcDbPolyline
 90
4
 70
1
 10
284.941790
 20
95.907040
 30
0.0
 10
284.941790
 20
95.540150
 30
0.0
 10
284.733650
 20
95.540150
 30
0.0
 10
284.733650
 20
95.907040
 30
0.0
  0
LWPOLYLINE
  5
1e2
100
AcDbEntity
  8
Calque_1
 62
7
100
AcDbPolyline
 90
13
 70
1
 10
287.064080
 20
95.836480
 30
0.0
 10
287.064080
 20
93.850340
 30
0.0
 10
287.628520
 20
93.850340
 30
0.0
 10
287.727320
 20
93.779840
 30
0.0
 10
287.628520
 20
93.705740
 30
0.0
 10
286.354990
 20
93.705740
 30
0.0
 10
286.259790
 20
93.779840
 30
0.0
 10
286.354990
 20
93.850340
 30
0.0
 10
286.919440
 20
93.850340
 30
0.0
 10
286.919440
 20
95.691840
 30
0.0
 10
286.506690
 20
95.691840
 30
0.0
 10
286.411490
 20
95.765940
 30
0.0
 10
286.506690
 20
95.836440
 30
0.0
  0
LWPOLYLINE
  5
1e3
100
AcDbEntity
  8
Calque_1
 62
7
100
AcDbPolyline
 90
25
 70
1
 10
288.706640
 20
95.176790
 30
0.0
 10
289.482750
 20
95.176790
 30
0.0
 10
289.577950
 20
95.106190
 30
0.0
 10
289.482750
 20
95.032090
 30
0.0
 10
288.706640
 20
95.032090
 30
0.0
 10
288.706640
 20
94.090170
 30
0.0
 10
288.812480
 20
93.874980
 30
0.0
 10
289.101750
 20
93.793880
 30
0.0
 10
289.415730
 20
93.832680
 30
0.0
 10
289.687360
 20
93.934990
 30
0.0
 10
289.743760
 20
93.956190
 30
0.0
 10
289.789660
 20
93.934990
 30
0.0
 10
289.810860
 20
93.885590
 30
0.0
 10
289.570970
 20
93.726840
 30
0.0
 10
289.108830
 20
93.649240
 30
0.0
 10
288.710190
 20
93.765660
 30
0.0
 10
288.562020
 20
94.083160
 30
0.0
 10
288.562020
 20
95.032130
 30
0.0
 10
288.300970
 20
95.032130
 30
0.0
 10
288.202170
 20
95.106230
 30
0.0
 10
288.300970
 20
95.176830
 30
0.0
 10
288.562020
 20
95.176830
 30
0.0
 10
288.562020
 20
95.596630
 30
0.0
 10
288.636120
 20
95.691930
 30
0.0
 10
288.706620
 20
95.596630
 30
0.0
  0
LWPOLYLINE
  5
1e4
100
AcDbEntity
  8
Calque_1
 62
7
100
AcDbPolyline
 90
17
 70
1
 10
292.000210
 20
94.407730
 30
0.0
 10
290.532650
 20
94.407730
 30
0.0
 10
290.765490
 20
93.959700
 30
0.0
 10
291.245260
 20
93.793900
 30
0.0
 10
291.583930
 20
93.846800
 30
0.0
 10
291.862630
 20
93.984390
 30
0.0
 10
291.919030
 20
94.009090
 30
0.0
 10
291.964930
 20
93.987890
 30
0.0
 10
291.986130
 20
93.938490
 30
0.0
 10
291.732130
 20
93.747990
 30
0.0
 10
291.241770
 20
93.649190
 30
0.0
 10
290.634990
 20
93.889080
 30
0.0
 10
290.388040
 20
94.471160
 30
0.0
 10
290.620880
 20
95.007380
 30
0.0
 10
291.192380
 20
95.226110
 30
0.0
 10
291.774460
 20
95.000330
 30
0.0
 10
292.000240
 20
94.407660
 30
0.0
  0
LWPOLYLINE
  5
1e5
100
AcDbEntity
  8
Calque_1
 62
7
100
AcDbPolyline
 90
6
 70
1
 10
290.532650
 20
94.552370
 30
0.0
 10
291.852040
 20
94.552370
 30
0.0
 10
291.629790
 20
94.936900
 30
0.0
 10
291.192350
 20
95.081540
 30
0.0
 10
290.758430
 20
94.936900
 30
0.0
 10
290.532650
 20
94.552370
 30
0.0
  0
LWPOLYLINE
  5
1e6
100
AcDbEntity
  8
Calque_1
 62
7
100
AcDbPolyline
 90
25
 70
1
 10
294.115500
 20
94.919260
 30
0.0
 10
294.006140
 20
94.993360
 30
0.0
 10
293.826220
 20
95.067460
 30
0.0
 10
293.575750
 20
94.982760
 30
0.0
 10
293.155940
 20
94.629980
 30
0.0
 10
293.155940
 20
93.850340
 30
0.0
 10
293.787410
 20
93.850340
 30
0.0
 10
293.882610
 20
93.776240
 30
0.0
 10
293.787410
 20
93.705640
 30
0.0
 10
292.672640
 20
93.705640
 30
0.0
 10
292.577340
 20
93.779740
 30
0.0
 10
292.672640
 20
93.850240
 30
0.0
 10
293.011300
 20
93.850240
 30
0.0
 10
293.011300
 20
95.032050
 30
0.0
 10
292.746720
 20
95.032050
 30
0.0
 10
292.651520
 20
95.106150
 30
0.0
 10
292.746720
 20
95.176750
 30
0.0
 10
293.155940
 20
95.176750
 30
0.0
 10
293.155940
 20
94.816910
 30
0.0
 10
293.551050
 20
95.123830
 30
0.0
 10
293.836800
 20
95.212030
 30
0.0
 10
294.083750
 20
95.127330
 30
0.0
 10
294.189580
 20
94.993270
 30
0.0
 10
294.168380
 20
94.940370
 30
0.0
 10
294.115480
 20
94.919170
 30
0.0
  0
LWPOLYLINE
  5
1e7
100
AcDbEntity
  8
Calque_1
 62
7
100
AcDbPolyline
 90
38
 70
1
 10
285.272650
 20
89.885120
 30
0.0
 10
285.272650
 20
89.701680
 30
0.0
 10
285.445520
 20
89.881590
 30
0.0
 10
285.643070
 20
89.934490
 30
0.0
 10
285.985270
 20
89.684020
 30
0.0
 10
286.383900
 20
89.934490
 30
0.0
 10
286.644960
 20
89.821600
 30
0.0
 10
286.754320
 20
89.553490
 30
0.0
 10
286.754320
 20
88.558660
 30
0.0
 10
286.874270
 20
88.558660
 30
0.0
 10
286.969470
 20
88.488060
 30
0.0
 10
286.874270
 20
88.413960
 30
0.0
 10
286.613210
 20
88.413960
 30
0.0
 10
286.613210
 20
89.539320
 30
0.0
 10
286.542610
 20
89.712180
 30
0.0
 10
286.380340
 20
89.789780
 30
0.0
 10
286.013450
 20
89.500500
 30
0.0
 10
286.013450
 20
88.558590
 30
0.0
 10
286.133390
 20
88.558590
 30
0.0
 10
286.228690
 20
88.487990
 30
0.0
 10
286.133390
 20
88.413890
 30
0.0
 10
285.872340
 20
88.413890
 30
0.0
 10
285.872340
 20
89.528670
 30
0.0
 10
285.801740
 20
89.708580
 30
0.0
 10
285.642990
 20
89.789680
 30
0.0
 10
285.272570
 20
89.500400
 30
0.0
 10
285.272570
 20
88.558490
 30
0.0
 10
285.392520
 20
88.558490
 30
0.0
 10
285.487720
 20
88.487890
 30
0.0
 10
285.392520
 20
88.413790
 30
0.0
 10
285.007990
 20
88.413790
 30
0.0
 10
284.916290
 20
88.487890
 30
0.0
 10
285.011490
 20
88.558490
 30
0.0
 10
285.131430
 20
88.558490
 30
0.0
 10
285.131430
 20
89.740290
 30
0.0
 10
285.011490
 20
89.740290
 30
0.0
 10
284.916290
 20
89.814390
 30
0.0
 10
285.011490
 20
89.884890
 30
0.0
  0
LWPOLYLINE
  5
1e8
100
AcDbEntity
  8
Calque_1
 62
7
100
AcDbPolyline
 90
9
 70
1
 10
288.051170
 20
89.934510
 30
0.0
 10
288.622670
 20
89.701680
 30
0.0
 10
288.855500
 20
89.137230
 30
0.0
 10
288.619140
 20
88.583370
 30
0.0
 10
288.051170
 20
88.357590
 30
0.0
 10
287.479670
 20
88.586900
 30
0.0
 10
287.246830
 20
89.147820
 30
0.0
 10
287.479670
 20
89.701680
 30
0.0
 10
288.051170
 20
89.934510
 30
0.0
  0
LWPOLYLINE
  5
1e9
100
AcDbEntity
  8
Calque_1
 62
7
100
AcDbPolyline
 90
9
 70
1
 10
288.051170
 20
89.789870
 30
0.0
 10
287.581970
 20
89.602900
 30
0.0
 10
287.391470
 20
89.147820
 30
0.0
 10
287.581970
 20
88.689200
 30
0.0
 10
288.051170
 20
88.502230
 30
0.0
 10
288.516830
 20
88.689200
 30
0.0
 10
288.710860
 20
89.137230
 30
0.0
 10
288.520360
 20
89.602900
 30
0.0
 10
288.051170
 20
89.789870
 30
0.0
  0
LWPOLYLINE
  5
1ea
100
AcDbEntity
  8
Calque_1
 62
7
100
AcDbPolyline
 90
19
 70
1
 10
290.879060
 20
90.544820
 30
0.0
 10
290.879060
 20
88.558680
 30
0.0
 10
291.069560
 20
88.558680
 30
0.0
 10
291.164760
 20
88.488080
 30
0.0
 10
291.069560
 20
88.413980
 30
0.0
 10
290.734430
 20
88.413980
 30
0.0
 10
290.734430
 20
88.727950
 30
0.0
 10
290.448675
 20
88.450135
 30
0.0
 10
290.092370
 20
88.357530
 30
0.0
 10
289.552620
 20
88.590370
 30
0.0
 10
289.330370
 20
89.147760
 30
0.0
 10
289.552620
 20
89.701620
 30
0.0
 10
290.092370
 20
89.934450
 30
0.0
 10
290.446915
 20
89.842728
 30
0.0
 10
290.734430
 20
89.567560
 30
0.0
 10
290.734430
 20
90.400120
 30
0.0
 10
290.543930
 20
90.400120
 30
0.0
 10
290.448730
 20
90.474220
 30
0.0
 10
290.543930
 20
90.544820
 30
0.0
  0
LWPOLYLINE
  5
1eb
100
AcDbEntity
  8
Calque_1
 62
7
100
AcDbPolyline
 90
9
 70
1
 10
290.102950
 20
89.789870
 30
0.0
 10
289.658450
 20
89.602900
 30
0.0
 10
289.475010
 20
89.147820
 30
0.0
 10
289.658450
 20
88.689200
 30
0.0
 10
290.106480
 20
88.502230
 30
0.0
 10
290.550980
 20
88.689200
 30
0.0
 10
290.734430
 20
89.140760
 30
0.0
 10
290.550980
 20
89.602900
 30
0.0
 10
290.102950
 20
89.789870
 30
0.0
  0
LWPOLYLINE
  5
1ec
100
AcDbEntity
  8
Calque_1
 62
7
100
AcDbPolyline
 90
30
 70
1
 10
280.241960
 20
76.375970
 30
0.0
 10
280.241960
 20
75.740970
 30
0.0
 10
279.906820
 20
75.740970
 30
0.0
 10
279.811620
 20
75.815070
 30
0.0
 10
279.906820
 20
75.885670
 30
0.0
 10
280.097320
 20
75.885670
 30
0.0
 10
280.097320
 20
77.727170
 30
0.0
 10
279.906820
 20
77.727170
 30
0.0
 10
279.811620
 20
77.801270
 30
0.0
 10
279.906820
 20
77.871770
 30
0.0
 10
280.241960
 20
77.871770
 30
0.0
 10
280.241960
 20
76.548860
 30
0.0
 10
280.852270
 20
77.067440
 30
0.0
 10
280.774670
 20
77.067440
 30
0.0
 10
280.679470
 20
77.141540
 30
0.0
 10
280.774670
 20
77.212140
 30
0.0
 10
281.233280
 20
77.212140
 30
0.0
 10
281.328580
 20
77.141540
 30
0.0
 10
281.233280
 20
77.067440
 30
0.0
 10
281.067470
 20
77.067440
 30
0.0
 10
280.513610
 20
76.605300
 30
0.0
 10
281.243860
 20
75.885640
 30
0.0
 10
281.402610
 20
75.885640
 30
0.0
 10
281.497910
 20
75.815040
 30
0.0
 10
281.402610
 20
75.740940
 30
0.0
 10
280.940470
 20
75.740940
 30
0.0
 10
280.845270
 20
75.815040
 30
0.0
 10
280.940470
 20
75.885640
 30
0.0
 10
281.039270
 20
75.885640
 30
0.0
 10
280.404270
 20
76.513580
 30
0.0
  0
LWPOLYLINE
  5
1ed
100
AcDbEntity
  8
Calque_1
 62
7
100
AcDbPolyline
 90
17
 70
1
 10
283.539050
 20
76.442990
 30
0.0
 10
282.071500
 20
76.442990
 30
0.0
 10
282.304330
 20
75.994970
 30
0.0
 10
282.784110
 20
75.829160
 30
0.0
 10
283.122780
 20
75.882060
 30
0.0
 10
283.401470
 20
76.019640
 30
0.0
 10
283.457870
 20
76.044340
 30
0.0
 10
283.503770
 20
76.023140
 30
0.0
 10
283.524970
 20
75.973740
 30
0.0
 10
283.270970
 20
75.783240
 30
0.0
 10
282.780610
 20
75.684440
 30
0.0
 10
282.173830
 20
75.924330
 30
0.0
 10
281.926890
 20
76.506410
 30
0.0
 10
282.159720
 20
77.042640
 30
0.0
 10
282.731220
 20
77.261360
 30
0.0
 10
283.313310
 20
77.035580
 30
0.0
 10
283.539080
 20
76.442910
 30
0.0
  0
LWPOLYLINE
  5
1ee
100
AcDbEntity
  8
Calque_1
 62
7
100
AcDbPolyline
 90
6
 70
1
 10
282.071500
 20
76.587630
 30
0.0
 10
283.390890
 20
76.587630
 30
0.0
 10
283.168640
 20
76.972160
 30
0.0
 10
282.731190
 20
77.116800
 30
0.0
 10
282.297280
 20
76.972160
 30
0.0
 10
282.071500
 20
76.587630
 30
0.0
  0
LWPOLYLINE
  5
1ef
100
AcDbEntity
  8
Calque_1
 62
7
100
AcDbPolyline
 90
26
 70
1
 10
284.814730
 20
75.740970
 30
0.0
 10
284.151510
 20
77.067410
 30
0.0
 10
284.095110
 20
77.067410
 30
0.0
 10
283.999810
 20
77.141510
 30
0.0
 10
284.095110
 20
77.212110
 30
0.0
 10
284.500800
 20
77.212110
 30
0.0
 10
284.596000
 20
77.141510
 30
0.0
 10
284.500800
 20
77.067410
 30
0.0
 10
284.317360
 20
77.067410
 30
0.0
 10
284.895910
 20
75.899720
 30
0.0
 10
285.463880
 20
77.067410
 30
0.0
 10
285.273380
 20
77.067410
 30
0.0
 10
285.178080
 20
77.141510
 30
0.0
 10
285.273380
 20
77.212110
 30
0.0
 10
285.661440
 20
77.212110
 30
0.0
 10
285.756640
 20
77.141510
 30
0.0
 10
285.661440
 20
77.067410
 30
0.0
 10
285.612040
 20
77.067410
 30
0.0
 10
284.708930
 20
75.229440
 30
0.0
 10
284.938230
 20
75.229440
 30
0.0
 10
285.033530
 20
75.158840
 30
0.0
 10
284.938230
 20
75.084740
 30
0.0
 10
284.116260
 20
75.084740
 30
0.0
 10
284.021060
 20
75.158840
 30
0.0
 10
284.116260
 20
75.229440
 30
0.0
 10
284.564290
 20
75.229440
 30
0.0
  0
LWPOLYLINE
  5
1f0
100
AcDbEntity
  8
Calque_1
 62
7
100
AcDbPolyline
 90
19
 70
1
 10
286.443190
 20
77.871740
 30
0.0
 10
286.443190
 20
76.898080
 30
0.0
 10
286.730700
 20
77.170600
 30
0.0
 10
287.078190
 20
77.261440
 30
0.0
 10
287.621460
 20
77.035660
 30
0.0
 10
287.843710
 20
76.481800
 30
0.0
 10
287.617940
 20
75.917360
 30
0.0
 10
287.078190
 20
75.684520
 30
0.0
 10
286.725410
 20
75.776243
 30
0.0
 10
286.443190
 20
76.051410
 30
0.0
 10
286.443190
 20
75.740970
 30
0.0
 10
286.108050
 20
75.740970
 30
0.0
 10
286.012850
 20
75.815070
 30
0.0
 10
286.108050
 20
75.885670
 30
0.0
 10
286.298550
 20
75.885670
 30
0.0
 10
286.298550
 20
77.727170
 30
0.0
 10
286.108050
 20
77.727170
 30
0.0
 10
286.012850
 20
77.801270
 30
0.0
 10
286.108050
 20
77.871770
 30
0.0
  0
LWPOLYLINE
  5
1f1
100
AcDbEntity
  8
Calque_1
 62
7
100
AcDbPolyline
 90
9
 70
1
 10
287.071130
 20
77.116800
 30
0.0
 10
286.626630
 20
76.929830
 30
0.0
 10
286.443190
 20
76.474740
 30
0.0
 10
286.626630
 20
76.016130
 30
0.0
 10
287.071130
 20
75.829160
 30
0.0
 10
287.512100
 20
76.016130
 30
0.0
 10
287.699080
 20
76.464160
 30
0.0
 10
287.515630
 20
76.926300
 30
0.0
 10
287.071130
 20
77.116800
 30
0.0
  0
LWPOLYLINE
  5
1f2
100
AcDbEntity
  8
Calque_1
 62
7
100
AcDbPolyline
 90
9
 70
1
 10
289.108810
 20
77.261440
 30
0.0
 10
289.680310
 20
77.028610
 30
0.0
 10
289.913140
 20
76.464160
 30
0.0
 10
289.676780
 20
75.910300
 30
0.0
 10
289.108810
 20
75.684520
 30
0.0
 10
288.537310
 20
75.913830
 30
0.0
 10
288.304480
 20
76.474740
 30
0.0
 10
288.537310
 20
77.028610
 30
0.0
 10
289.108810
 20
77.261440
 30
0.0
  0
LWPOLYLINE
  5
1f3
100
AcDbEntity
  8
Calque_1
 62
7
100
AcDbPolyline
 90
9
 70
1
 10
289.108810
 20
77.116800
 30
0.0
 10
288.639610
 20
76.929830
 30
0.0
 10
288.449110
 20
76.474740
 30
0.0
 10
288.639610
 20
76.016130
 30
0.0
 10
289.108810
 20
75.829160
 30
0.0
 10
289.574480
 20
76.016130
 30
0.0
 10
289.768500
 20
76.464160
 30
0.0
 10
289.578000
 20
76.929830
 30
0.0
 10
289.108810
 20
77.116800
 30
0.0
  0
LWPOLYLINE
  5
1f4
100
AcDbEntity
  8
Calque_1
 62
7
100
AcDbPolyline
 90
24
 70
1
 10
290.606740
 20
77.074470
 30
0.0
 10
290.846630
 20
77.204990
 30
0.0
 10
291.220570
 20
77.261390
 30
0.0
 10
291.626260
 20
77.137920
 30
0.0
 10
291.788540
 20
76.827470
 30
0.0
 10
291.788540
 20
75.885560
 30
0.0
 10
291.979040
 20
75.885560
 30
0.0
 10
292.074340
 20
75.814960
 30
0.0
 10
291.979040
 20
75.740860
 30
0.0
 10
291.643900
 20
75.740860
 30
0.0
 10
291.643900
 20
75.977220
 30
0.0
 10
290.970100
 20
75.684410
 30
0.0
 10
290.571460
 20
75.807880
 30
0.0
 10
290.419760
 20
76.135970
 30
0.0
 10
290.624380
 20
76.506380
 30
0.0
 10
291.164130
 20
76.651020
 30
0.0
 10
291.643900
 20
76.576920
 30
0.0
 10
291.643900
 20
76.827390
 30
0.0
 10
291.523960
 20
77.035530
 30
0.0
 10
291.209990
 20
77.116630
 30
0.0
 10
290.874850
 20
77.060230
 30
0.0
 10
290.673760
 20
77.003730
 30
0.0
 10
290.624360
 20
77.024930
 30
0.0
 10
290.606760
 20
77.074330
 30
0.0
  0
LWPOLYLINE
  5
1f5
100
AcDbEntity
  8
Calque_1
 62
7
100
AcDbPolyline
 90
9
 70
1
 10
291.643900
 20
76.136080
 30
0.0
 10
291.643900
 20
76.453580
 30
0.0
 10
291.192350
 20
76.506480
 30
0.0
 10
290.737260
 20
76.400650
 30
0.0
 10
290.564400
 20
76.132540
 30
0.0
 10
290.673760
 20
75.910290
 30
0.0
 10
290.966570
 20
75.829190
 30
0.0
 10
291.308760
 20
75.899790
 30
0.0
 10
291.643900
 20
76.136150
 30
0.0
  0
LWPOLYLINE
  5
1f6
100
AcDbEntity
  8
Calque_1
 62
7
100
AcDbPolyline
 90
25
 70
1
 10
294.115500
 20
76.954520
 30
0.0
 10
294.006140
 20
77.028620
 30
0.0
 10
293.826220
 20
77.102720
 30
0.0
 10
293.575750
 20
77.018020
 30
0.0
 10
293.155940
 20
76.665240
 30
0.0
 10
293.155940
 20
75.885610
 30
0.0
 10
293.787410
 20
75.885610
 30
0.0
 10
293.882610
 20
75.811510
 30
0.0
 10
293.787410
 20
75.741010
 30
0.0
 10
292.672640
 20
75.741010
 30
0.0
 10
292.577340
 20
75.815110
 30
0.0
 10
292.672640
 20
75.885710
 30
0.0
 10
293.011300
 20
75.885710
 30
0.0
 10
293.011300
 20
77.067510
 30
0.0
 10
292.746720
 20
77.067510
 30
0.0
 10
292.651520
 20
77.141610
 30
0.0
 10
292.746720
 20
77.212210
 30
0.0
 10
293.155940
 20
77.212210
 30
0.0
 10
293.155940
 20
76.852380
 30
0.0
 10
293.551050
 20
77.159290
 30
0.0
 10
293.836800
 20
77.247490
 30
0.0
 10
294.083750
 20
77.162790
 30
0.0
 10
294.189580
 20
77.028740
 30
0.0
 10
294.168380
 20
76.975840
 30
0.0
 10
294.115480
 20
76.954640
 30
0.0
  0
LWPOLYLINE
  5
1f7
100
AcDbEntity
  8
Calque_1
 62
7
100
AcDbPolyline
 90
19
 70
1
 10
296.167290
 20
77.871740
 30
0.0
 10
296.167290
 20
75.885610
 30
0.0
 10
296.357790
 20
75.885610
 30
0.0
 10
296.452990
 20
75.815010
 30
0.0
 10
296.357790
 20
75.740910
 30
0.0
 10
296.022650
 20
75.740910
 30
0.0
 10
296.022650
 20
76.054880
 30
0.0
 10
295.736895
 20
75.777065
 30
0.0
 10
295.380590
 20
75.684460
 30
0.0
 10
294.840840
 20
75.917300
 30
0.0
 10
294.618590
 20
76.474680
 30
0.0
 10
294.840840
 20
77.028550
 30
0.0
 10
295.380590
 20
77.261380
 30
0.0
 10
295.735135
 20
77.169658
 30
0.0
 10
296.022650
 20
76.894490
 30
0.0
 10
296.022650
 20
77.727050
 30
0.0
 10
295.832150
 20
77.727050
 30
0.0
 10
295.736850
 20
77.801150
 30
0.0
 10
295.832150
 20
77.871650
 30
0.0
  0
LWPOLYLINE
  5
1f8
100
AcDbEntity
  8
Calque_1
 62
7
100
AcDbPolyline
 90
9
 70
1
 10
295.391170
 20
77.116800
 30
0.0
 10
294.946670
 20
76.929830
 30
0.0
 10
294.763230
 20
76.474740
 30
0.0
 10
294.946670
 20
76.016130
 30
0.0
 10
295.394700
 20
75.829160
 30
0.0
 10
295.839200
 20
76.016130
 30
0.0
 10
296.022650
 20
76.467690
 30
0.0
 10
295.839200
 20
76.929830
 30
0.0
 10
295.391170
 20
77.116800
 30
0.0
  0
LWPOLYLINE
  5
1f9
100
AcDbEntity
  8
Calque_1
 62
7
100
AcDbPolyline
 90
26
 70
1
 10
282.534330
 20
70.759740
 30
0.0
 10
282.474330
 20
70.668040
 30
0.0
 10
282.315580
 20
70.548100
 30
0.0
 10
282.061580
 20
70.438740
 30
0.0
 10
281.737030
 20
70.392840
 30
0.0
 10
281.165530
 20
70.611560
 30
0.0
 10
280.943280
 20
71.168950
 30
0.0
 10
281.172580
 20
71.743970
 30
0.0
 10
281.754670
 20
71.969750
 30
0.0
 10
282.305000
 20
71.775720
 30
0.0
 10
282.305000
 20
71.821620
 30
0.0
 10
282.379100
 20
71.920420
 30
0.0
 10
282.449700
 20
71.821620
 30
0.0
 10
282.449700
 20
71.500590
 30
0.0
 10
282.379100
 20
71.405290
 30
0.0
 10
282.305000
 20
71.489990
 30
0.0
 10
282.128610
 20
71.726360
 30
0.0
 10
281.744080
 20
71.825160
 30
0.0
 10
281.267830
 20
71.641720
 30
0.0
 10
281.087920
 20
71.172520
 30
0.0
 10
281.271360
 20
70.713910
 30
0.0
 10
281.744080
 20
70.537520
 30
0.0
 10
282.403780
 20
70.791520
 30
0.0
 10
282.467280
 20
70.826820
 30
0.0
 10
282.513180
 20
70.805620
 30
0.0
 10
282.534380
 20
70.759720
 30
0.0
  0
LWPOLYLINE
  5
1fa
100
AcDbEntity
  8
Calque_1
 62
7
100
AcDbPolyline
 90
9
 70
1
 10
283.820590
 20
71.969770
 30
0.0
 10
284.392090
 20
71.736940
 30
0.0
 10
284.624920
 20
71.172490
 30
0.0
 10
284.388560
 20
70.618630
 30
0.0
 10
283.820590
 20
70.392860
 30
0.0
 10
283.249090
 20
70.622160
 30
0.0
 10
283.016250
 20
71.183080
 30
0.0
 10
283.249090
 20
71.736940
 30
0.0
 10
283.820590
 20
71.969770
 30
0.0
  0
LWPOLYLINE
  5
1fb
100
AcDbEntity
  8
Calque_1
 62
7
100
AcDbPolyline
 90
9
 70
1
 10
283.820590
 20
71.825130
 30
0.0
 10
283.351390
 20
71.638160
 30
0.0
 10
283.160890
 20
71.183080
 30
0.0
 10
283.351390
 20
70.724470
 30
0.0
 10
283.820590
 20
70.537490
 30
0.0
 10
284.286250
 20
70.724470
 30
0.0
 10
284.480280
 20
71.172490
 30
0.0
 10
284.289780
 20
71.638160
 30
0.0
 10
283.820590
 20
71.825130
 30
0.0
  0
LWPOLYLINE
  5
1fc
100
AcDbEntity
  8
Calque_1
 62
7
100
AcDbPolyline
 90
37
 70
1
 10
286.002900
 20
71.825130
 30
0.0
 10
285.879430
 20
71.811030
 30
0.0
 10
285.770070
 20
71.772230
 30
0.0
 10
285.685370
 20
71.722830
 30
0.0
 10
285.607770
 20
71.659330
 30
0.0
 10
285.551370
 20
71.595830
 30
0.0
 10
285.501970
 20
71.532330
 30
0.0
 10
285.466670
 20
71.486430
 30
0.0
 10
285.466670
 20
70.593900
 30
0.0
 10
285.625420
 20
70.593900
 30
0.0
 10
285.720720
 20
70.523300
 30
0.0
 10
285.625420
 20
70.449200
 30
0.0
 10
285.163280
 20
70.449200
 30
0.0
 10
285.064480
 20
70.523300
 30
0.0
 10
285.163280
 20
70.593900
 30
0.0
 10
285.322030
 20
70.593900
 30
0.0
 10
285.322030
 20
71.775700
 30
0.0
 10
285.202090
 20
71.775700
 30
0.0
 10
285.106890
 20
71.849800
 30
0.0
 10
285.202090
 20
71.920300
 30
0.0
 10
285.466670
 20
71.920300
 30
0.0
 10
285.466670
 20
71.676890
 30
0.0
 10
285.734780
 20
71.906190
 30
0.0
 10
286.017010
 20
71.969690
 30
0.0
 10
286.412120
 20
71.832110
 30
0.0
 10
286.570870
 20
71.489910
 30
0.0
 10
286.570870
 20
70.593860
 30
0.0
 10
286.690810
 20
70.593860
 30
0.0
 10
286.786110
 20
70.523260
 30
0.0
 10
286.690810
 20
70.449160
 30
0.0
 10
286.306280
 20
70.449160
 30
0.0
 10
286.211080
 20
70.523260
 30
0.0
 10
286.306280
 20
70.593860
 30
0.0
 10
286.426230
 20
70.593860
 30
0.0
 10
286.426230
 20
71.465220
 30
0.0
 10
286.309810
 20
71.719220
 30
0.0
 10
286.002890
 20
71.825050
 30
0.0
  0
LWPOLYLINE
  5
1fd
100
AcDbEntity
  8
Calque_1
 62
7
100
AcDbPolyline
 90
25
 70
1
 10
287.649000
 20
71.920380
 30
0.0
 10
288.425110
 20
71.920380
 30
0.0
 10
288.520310
 20
71.849880
 30
0.0
 10
288.425110
 20
71.775780
 30
0.0
 10
287.649000
 20
71.775780
 30
0.0
 10
287.649000
 20
70.833870
 30
0.0
 10
287.754830
 20
70.618670
 30
0.0
 10
288.044110
 20
70.537570
 30
0.0
 10
288.358080
 20
70.576370
 30
0.0
 10
288.629720
 20
70.678680
 30
0.0
 10
288.686120
 20
70.699880
 30
0.0
 10
288.732020
 20
70.678680
 30
0.0
 10
288.753220
 20
70.629280
 30
0.0
 10
288.513330
 20
70.470530
 30
0.0
 10
288.051190
 20
70.392930
 30
0.0
 10
287.652560
 20
70.509340
 30
0.0
 10
287.504390
 20
70.826840
 30
0.0
 10
287.504390
 20
71.775810
 30
0.0
 10
287.243330
 20
71.775810
 30
0.0
 10
287.144530
 20
71.849910
 30
0.0
 10
287.243330
 20
71.920410
 30
0.0
 10
287.504390
 20
71.920410
 30
0.0
 10
287.504390
 20
72.340220
 30
0.0
 10
287.578490
 20
72.435420
 30
0.0
 10
287.649090
 20
72.340220
 30
0.0
  0
LWPOLYLINE
  5
1fe
100
AcDbEntity
  8
Calque_1
 62
7
100
AcDbPolyline
 90
25
 70
1
 10
290.942560
 20
71.662860
 30
0.0
 10
290.833200
 20
71.736960
 30
0.0
 10
290.653290
 20
71.811060
 30
0.0
 10
290.402810
 20
71.726360
 30
0.0
 10
289.983010
 20
71.373580
 30
0.0
 10
289.983010
 20
70.593940
 30
0.0
 10
290.614480
 20
70.593940
 30
0.0
 10
290.709680
 20
70.519840
 30
0.0
 10
290.614480
 20
70.449240
 30
0.0
 10
289.499700
 20
70.449240
 30
0.0
 10
289.404400
 20
70.523340
 30
0.0
 10
289.499700
 20
70.593940
 30
0.0
 10
289.838370
 20
70.593940
 30
0.0
 10
289.838370
 20
71.775740
 30
0.0
 10
289.573790
 20
71.775740
 30
0.0
 10
289.478590
 20
71.849840
 30
0.0
 10
289.573790
 20
71.920340
 30
0.0
 10
289.983010
 20
71.920340
 30
0.0
 10
289.983010
 20
71.560510
 30
0.0
 10
290.378120
 20
71.867430
 30
0.0
 10
290.663870
 20
71.955630
 30
0.0
 10
290.910810
 20
71.870930
 30
0.0
 10
291.016650
 20
71.736880
 30
0.0
 10
290.995450
 20
71.683980
 30
0.0
 10
290.942550
 20
71.662780
 30
0.0
  0
LWPOLYLINE
  5
1ff
100
AcDbEntity
  8
Calque_1
 62
7
100
AcDbPolyline
 90
9
 70
1
 10
292.281740
 20
71.969770
 30
0.0
 10
292.853240
 20
71.736940
 30
0.0
 10
293.086080
 20
71.172490
 30
0.0
 10
292.849710
 20
70.618630
 30
0.0
 10
292.281740
 20
70.392860
 30
0.0
 10
291.710240
 20
70.622160
 30
0.0
 10
291.477410
 20
71.183080
 30
0.0
 10
291.710240
 20
71.736940
 30
0.0
 10
292.281740
 20
71.969770
 30
0.0
  0
LWPOLYLINE
  5
200
100
AcDbEntity
  8
Calque_1
 62
7
100
AcDbPolyline
 90
9
 70
1
 10
292.281740
 20
71.825130
 30
0.0
 10
291.812550
 20
71.638160
 30
0.0
 10
291.622050
 20
71.183080
 30
0.0
 10
291.812550
 20
70.724470
 30
0.0
 10
292.281740
 20
70.537490
 30
0.0
 10
292.747410
 20
70.724470
 30
0.0
 10
292.941440
 20
71.172490
 30
0.0
 10
292.750940
 20
71.638160
 30
0.0
 10
292.281740
 20
71.825130
 30
0.0
  0
LWPOLYLINE
  5
201
100
AcDbEntity
  8
Calque_1
 62
7
100
AcDbPolyline
 90
13
 70
1
 10
294.467590
 20
72.580080
 30
0.0
 10
294.467590
 20
70.593940
 30
0.0
 10
295.032030
 20
70.593940
 30
0.0
 10
295.130830
 20
70.523340
 30
0.0
 10
295.032030
 20
70.449240
 30
0.0
 10
293.758500
 20
70.449240
 30
0.0
 10
293.663200
 20
70.523340
 30
0.0
 10
293.758500
 20
70.593940
 30
0.0
 10
294.322950
 20
70.593940
 30
0.0
 10
294.322950
 20
72.435440
 30
0.0
 10
293.910200
 20
72.435440
 30
0.0
 10
293.815000
 20
72.509540
 30
0.0
 10
293.910200
 20
72.580140
 30
0.0
  0
LWPOLYLINE
  5
202
100
AcDbEntity
  8
Calque_1
 62
7
100
AcDbPolyline
 90
4
 70
1
 10
286.632300
 20
57.127010
 30
0.0
 10
289.632280
 20
57.127010
 30
0.0
 10
289.632280
 20
54.127030
 30
0.0
 10
286.632300
 20
54.127030
 30
0.0
  0
LWPOLYLINE
  5
203
100
AcDbEntity
  8
Calque_1
 62
7
100
AcDbPolyline
 90
4
 70
1
 10
286.632300
 20
40.137600
 30
0.0
 10
289.632280
 20
40.137600
 30
0.0
 10
289.632280
 20
37.137630
 30
0.0
 10
286.632300
 20
37.137630
 30
0.0
  0
LWPOLYLINE
  5
204
100
AcDbEntity
  8
Calque_1
 62
7
100
AcDbPolyline
 90
9
 70
1
 10
87.097285
 20
83.763080
 30
0.0
 10
87.554485
 20
83.576820
 30
0.0
 10
87.740751
 20
83.125260
 30
0.0
 10
87.551662
 20
82.682170
 30
0.0
 10
87.097285
 20
82.501550
 30
0.0
 10
86.640085
 20
82.685000
 30
0.0
 10
86.453818
 20
83.133730
 30
0.0
 10
86.640085
 20
83.576820
 30
0.0
 10
87.097285
 20
83.763080
 30
0.0
  0
LWPOLYLINE
  5
205
100
AcDbEntity
  8
Calque_1
 62
7
100
AcDbPolyline
 90
9
 70
1
 10
87.097285
 20
83.647370
 30
0.0
 10
86.721929
 20
83.497800
 30
0.0
 10
86.569529
 20
83.133730
 30
0.0
 10
86.721929
 20
82.766840
 30
0.0
 10
87.097285
 20
82.617260
 30
0.0
 10
87.469818
 20
82.766840
 30
0.0
 10
87.625040
 20
83.125260
 30
0.0
 10
87.472640
 20
83.497800
 30
0.0
 10
87.097285
 20
83.647370
 30
0.0
  0
LWPOLYLINE
  5
206
100
AcDbEntity
  8
Calque_1
 62
7
100
AcDbPolyline
 90
38
 70
1
 10
89.218493
 20
82.876910
 30
0.0
 10
89.122543
 20
83.037770
 30
0.0
 10
88.891121
 20
83.113970
 30
0.0
 10
88.620187
 20
83.156270
 30
0.0
 10
88.388765
 20
83.249370
 30
0.0
 10
88.292805
 20
83.444100
 30
0.0
 10
88.428272
 20
83.672700
 30
0.0
 10
88.775405
 20
83.763000
 30
0.0
 10
89.162050
 20
83.633180
 30
0.0
 10
89.162050
 20
83.644480
 30
0.0
 10
89.221320
 20
83.723480
 30
0.0
 10
89.277760
 20
83.644480
 30
0.0
 10
89.277760
 20
83.449750
 30
0.0
 10
89.221320
 20
83.373550
 30
0.0
 10
89.162050
 20
83.438450
 30
0.0
 10
89.049161
 20
83.590850
 30
0.0
 10
88.786694
 20
83.647250
 30
0.0
 10
88.524228
 20
83.585150
 30
0.0
 10
88.419805
 20
83.435580
 30
0.0
 10
88.515765
 20
83.305750
 30
0.0
 10
88.747187
 20
83.240850
 30
0.0
 10
89.018121
 20
83.195650
 30
0.0
 10
89.249543
 20
83.088400
 30
0.0
 10
89.345503
 20
82.873910
 30
0.0
 10
89.187459
 20
82.605800
 30
0.0
 10
88.792348
 20
82.501380
 30
0.0
 10
88.349259
 20
82.653780
 30
0.0
 10
88.349259
 20
82.622780
 30
0.0
 10
88.292819
 20
82.546580
 30
0.0
 10
88.233549
 20
82.622780
 30
0.0
 10
88.233549
 20
82.857020
 30
0.0
 10
88.292819
 20
82.933220
 30
0.0
 10
88.349259
 20
82.871120
 30
0.0
 10
88.349259
 20
82.851320
 30
0.0
 10
88.476259
 20
82.684810
 30
0.0
 10
88.783881
 20
82.617110
 30
0.0
 10
89.094326
 20
82.690510
 30
0.0
 10
89.218503
 20
82.876780
 30
0.0
  0
LWPOLYLINE
  5
207
100
AcDbEntity
  8
Calque_1
 62
7
100
AcDbPolyline
 90
26
 70
1
 10
91.144969
 20
82.795060
 30
0.0
 10
91.096989
 20
82.721660
 30
0.0
 10
90.969989
 20
82.625760
 30
0.0
 10
90.766789
 20
82.538260
 30
0.0
 10
90.507145
 20
82.501560
 30
0.0
 10
90.049945
 20
82.676540
 30
0.0
 10
89.872145
 20
83.122450
 30
0.0
 10
90.055589
 20
83.582470
 30
0.0
 10
90.521256
 20
83.763090
 30
0.0
 10
90.961522
 20
83.607870
 30
0.0
 10
90.961522
 20
83.644570
 30
0.0
 10
91.020792
 20
83.723570
 30
0.0
 10
91.077232
 20
83.644570
 30
0.0
 10
91.077232
 20
83.387750
 30
0.0
 10
91.020792
 20
83.311550
 30
0.0
 10
90.961522
 20
83.379250
 30
0.0
 10
90.820411
 20
83.568340
 30
0.0
 10
90.512789
 20
83.647340
 30
0.0
 10
90.131789
 20
83.500590
 30
0.0
 10
89.987856
 20
83.125230
 30
0.0
 10
90.134611
 20
82.758340
 30
0.0
 10
90.512789
 20
82.617230
 30
0.0
 10
91.040545
 20
82.820430
 30
0.0
 10
91.091345
 20
82.848630
 30
0.0
 10
91.128035
 20
82.831730
 30
0.0
 10
91.144965
 20
82.795030
 30
0.0
  0
LWPOLYLINE
  5
208
100
AcDbEntity
  8
Calque_1
 62
7
100
AcDbPolyline
 90
38
 70
1
 10
93.335631
 20
83.723570
 30
0.0
 10
93.335631
 20
83.576820
 30
0.0
 10
93.473920
 20
83.720750
 30
0.0
 10
93.631964
 20
83.763050
 30
0.0
 10
93.905720
 20
83.562680
 30
0.0
 10
94.224631
 20
83.763050
 30
0.0
 10
94.433475
 20
83.672750
 30
0.0
 10
94.520965
 20
83.458260
 30
0.0
 10
94.520965
 20
82.662400
 30
0.0
 10
94.616925
 20
82.662400
 30
0.0
 10
94.693125
 20
82.606000
 30
0.0
 10
94.616925
 20
82.546700
 30
0.0
 10
94.408075
 20
82.546700
 30
0.0
 10
94.408075
 20
83.447000
 30
0.0
 10
94.351635
 20
83.585280
 30
0.0
 10
94.221812
 20
83.647380
 30
0.0
 10
93.928301
 20
83.415960
 30
0.0
 10
93.928301
 20
82.662430
 30
0.0
 10
94.024261
 20
82.662430
 30
0.0
 10
94.100461
 20
82.606030
 30
0.0
 10
94.024261
 20
82.546730
 30
0.0
 10
93.815416
 20
82.546730
 30
0.0
 10
93.815416
 20
83.438550
 30
0.0
 10
93.758976
 20
83.582480
 30
0.0
 10
93.631976
 20
83.647380
 30
0.0
 10
93.335643
 20
83.415960
 30
0.0
 10
93.335643
 20
82.662430
 30
0.0
 10
93.431593
 20
82.662430
 30
0.0
 10
93.507793
 20
82.606030
 30
0.0
 10
93.431593
 20
82.546730
 30
0.0
 10
93.123971
 20
82.546730
 30
0.0
 10
93.050591
 20
82.606030
 30
0.0
 10
93.126791
 20
82.662430
 30
0.0
 10
93.222751
 20
82.662430
 30
0.0
 10
93.222751
 20
83.607870
 30
0.0
 10
93.126791
 20
83.607870
 30
0.0
 10
93.050591
 20
83.667170
 30
0.0
 10
93.126791
 20
83.723570
 30
0.0
  0
LWPOLYLINE
  5
209
100
AcDbEntity
  8
Calque_1
 62
7
100
AcDbPolyline
 90
9
 70
1
 10
95.558440
 20
83.763080
 30
0.0
 10
96.015640
 20
83.576820
 30
0.0
 10
96.201906
 20
83.125260
 30
0.0
 10
96.012817
 20
82.682170
 30
0.0
 10
95.558440
 20
82.501550
 30
0.0
 10
95.101240
 20
82.685000
 30
0.0
 10
94.914973
 20
83.133730
 30
0.0
 10
95.101240
 20
83.576820
 30
0.0
 10
95.558440
 20
83.763080
 30
0.0
  0
LWPOLYLINE
  5
20a
100
AcDbEntity
  8
Calque_1
 62
7
100
AcDbPolyline
 90
9
 70
1
 10
95.558440
 20
83.647370
 30
0.0
 10
95.183084
 20
83.497800
 30
0.0
 10
95.030684
 20
83.133730
 30
0.0
 10
95.183084
 20
82.766840
 30
0.0
 10
95.558440
 20
82.617260
 30
0.0
 10
95.930973
 20
82.766840
 30
0.0
 10
96.086195
 20
83.125260
 30
0.0
 10
95.933795
 20
83.497800
 30
0.0
 10
95.558440
 20
83.647370
 30
0.0
  0
LWPOLYLINE
  5
20b
100
AcDbEntity
  8
Calque_1
 62
7
100
AcDbPolyline
 90
19
 70
1
 10
97.820759
 20
84.251330
 30
0.0
 10
97.820759
 20
82.662420
 30
0.0
 10
97.973159
 20
82.662420
 30
0.0
 10
98.049359
 20
82.606020
 30
0.0
 10
97.973159
 20
82.546720
 30
0.0
 10
97.705048
 20
82.546720
 30
0.0
 10
97.705048
 20
82.797890
 30
0.0
 10
97.476448
 20
82.575643
 30
0.0
 10
97.191403
 20
82.501560
 30
0.0
 10
96.759603
 20
82.687830
 30
0.0
 10
96.581803
 20
83.133740
 30
0.0
 10
96.759603
 20
83.576830
 30
0.0
 10
97.191403
 20
83.763090
 30
0.0
 10
97.475037
 20
83.689713
 30
0.0
 10
97.705048
 20
83.469580
 30
0.0
 10
97.705048
 20
84.135630
 30
0.0
 10
97.552648
 20
84.135630
 30
0.0
 10
97.476448
 20
84.194930
 30
0.0
 10
97.552648
 20
84.251330
 30
0.0
  0
LWPOLYLINE
  5
20c
100
AcDbEntity
  8
Calque_1
 62
7
100
AcDbPolyline
 90
9
 70
1
 10
97.199870
 20
83.647370
 30
0.0
 10
96.844270
 20
83.497800
 30
0.0
 10
96.697514
 20
83.133730
 30
0.0
 10
96.844270
 20
82.766840
 30
0.0
 10
97.202692
 20
82.617260
 30
0.0
 10
97.558292
 20
82.766840
 30
0.0
 10
97.705048
 20
83.128080
 30
0.0
 10
97.558292
 20
83.497800
 30
0.0
 10
97.199870
 20
83.647370
 30
0.0
  0
LWPOLYLINE
  5
20d
100
AcDbEntity
  8
Calque_1
 62
7
100
AcDbPolyline
 90
9
 70
1
 10
87.097285
 20
47.763070
 30
0.0
 10
87.554485
 20
47.576800
 30
0.0
 10
87.740751
 20
47.125250
 30
0.0
 10
87.551662
 20
46.682160
 30
0.0
 10
87.097285
 20
46.501540
 30
0.0
 10
86.640085
 20
46.684980
 30
0.0
 10
86.453818
 20
47.133710
 30
0.0
 10
86.640085
 20
47.576800
 30
0.0
 10
87.097285
 20
47.763070
 30
0.0
  0
LWPOLYLINE
  5
20e
100
AcDbEntity
  8
Calque_1
 62
7
100
AcDbPolyline
 90
9
 70
1
 10
87.097285
 20
47.647360
 30
0.0
 10
86.721929
 20
47.497780
 30
0.0
 10
86.569529
 20
47.133710
 30
0.0
 10
86.721929
 20
46.766830
 30
0.0
 10
87.097285
 20
46.617250
 30
0.0
 10
87.469818
 20
46.766830
 30
0.0
 10
87.625040
 20
47.125250
 30
0.0
 10
87.472640
 20
47.497780
 30
0.0
 10
87.097285
 20
47.647360
 30
0.0
  0
LWPOLYLINE
  5
20f
100
AcDbEntity
  8
Calque_1
 62
7
100
AcDbPolyline
 90
38
 70
1
 10
89.218493
 20
46.876890
 30
0.0
 10
89.122543
 20
47.037760
 30
0.0
 10
88.891121
 20
47.113960
 30
0.0
 10
88.620187
 20
47.156260
 30
0.0
 10
88.388765
 20
47.249360
 30
0.0
 10
88.292805
 20
47.444090
 30
0.0
 10
88.428272
 20
47.672690
 30
0.0
 10
88.775405
 20
47.762990
 30
0.0
 10
89.162050
 20
47.633170
 30
0.0
 10
89.162050
 20
47.644470
 30
0.0
 10
89.221320
 20
47.723470
 30
0.0
 10
89.277760
 20
47.644470
 30
0.0
 10
89.277760
 20
47.449730
 30
0.0
 10
89.221320
 20
47.373530
 30
0.0
 10
89.162050
 20
47.438430
 30
0.0
 10
89.049161
 20
47.590830
 30
0.0
 10
88.786694
 20
47.647230
 30
0.0
 10
88.524228
 20
47.585130
 30
0.0
 10
88.419805
 20
47.435550
 30
0.0
 10
88.515765
 20
47.305730
 30
0.0
 10
88.747187
 20
47.240830
 30
0.0
 10
89.018121
 20
47.195630
 30
0.0
 10
89.249543
 20
47.088390
 30
0.0
 10
89.345503
 20
46.873900
 30
0.0
 10
89.187459
 20
46.605790
 30
0.0
 10
88.792348
 20
46.501370
 30
0.0
 10
88.349259
 20
46.653770
 30
0.0
 10
88.349259
 20
46.622770
 30
0.0
 10
88.292819
 20
46.546570
 30
0.0
 10
88.233549
 20
46.622770
 30
0.0
 10
88.233549
 20
46.857020
 30
0.0
 10
88.292819
 20
46.933220
 30
0.0
 10
88.349259
 20
46.871120
 30
0.0
 10
88.349259
 20
46.851320
 30
0.0
 10
88.476259
 20
46.684810
 30
0.0
 10
88.783881
 20
46.617110
 30
0.0
 10
89.094326
 20
46.690510
 30
0.0
 10
89.218503
 20
46.876770
 30
0.0
  0
LWPOLYLINE
  5
210
100
AcDbEntity
  8
Calque_1
 62
7
100
AcDbPolyline
 90
26
 70
1
 10
91.144969
 20
46.795050
 30
0.0
 10
91.096989
 20
46.721650
 30
0.0
 10
90.969989
 20
46.625650
 30
0.0
 10
90.766789
 20
46.538150
 30
0.0
 10
90.507145
 20
46.501450
 30
0.0
 10
90.049945
 20
46.676420
 30
0.0
 10
89.872145
 20
47.122340
 30
0.0
 10
90.055589
 20
47.582360
 30
0.0
 10
90.521256
 20
47.762980
 30
0.0
 10
90.961522
 20
47.607760
 30
0.0
 10
90.961522
 20
47.644460
 30
0.0
 10
91.020792
 20
47.723460
 30
0.0
 10
91.077232
 20
47.644460
 30
0.0
 10
91.077232
 20
47.387630
 30
0.0
 10
91.020792
 20
47.311430
 30
0.0
 10
90.961522
 20
47.379130
 30
0.0
 10
90.820411
 20
47.568220
 30
0.0
 10
90.512789
 20
47.647220
 30
0.0
 10
90.131789
 20
47.500460
 30
0.0
 10
89.987856
 20
47.125110
 30
0.0
 10
90.134611
 20
46.758220
 30
0.0
 10
90.512789
 20
46.617110
 30
0.0
 10
91.040545
 20
46.820310
 30
0.0
 10
91.091345
 20
46.848510
 30
0.0
 10
91.128035
 20
46.831610
 30
0.0
 10
91.144965
 20
46.794910
 30
0.0
  0
LWPOLYLINE
  5
211
100
AcDbEntity
  8
Calque_1
 62
7
100
AcDbPolyline
 90
35
 70
1
 10
91.680088
 20
48.036830
 30
0.0
 10
91.733708
 20
48.124330
 30
0.0
 10
91.911508
 20
48.234400
 30
0.0
 10
92.176796
 20
48.290900
 30
0.0
 10
92.529574
 20
48.163900
 30
0.0
 10
92.673508
 20
47.856270
 30
0.0
 10
92.580378
 20
47.596630
 30
0.0
 10
92.382823
 20
47.472450
 30
0.0
 10
92.642467
 20
47.283360
 30
0.0
 10
92.735597
 20
47.020900
 30
0.0
 10
92.560620
 20
46.654010
 30
0.0
 10
92.145753
 20
46.504430
 30
0.0
 10
91.787331
 20
46.586230
 30
0.0
 10
91.598242
 20
46.741460
 30
0.0
 10
91.615172
 20
46.778160
 30
0.0
 10
91.651862
 20
46.795060
 30
0.0
 10
91.730882
 20
46.749860
 30
0.0
 10
91.900216
 20
46.662360
 30
0.0
 10
92.148571
 20
46.620060
 30
0.0
 10
92.478771
 20
46.738590
 30
0.0
 10
92.619882
 20
47.020820
 30
0.0
 10
92.470305
 20
47.305860
 30
0.0
 10
92.114705
 20
47.427220
 30
0.0
 10
92.038505
 20
47.486520
 30
0.0
 10
92.114705
 20
47.542920
 30
0.0
 10
92.447021
 20
47.620530
 30
0.0
 10
92.557793
 20
47.853360
 30
0.0
 10
92.447727
 20
48.081960
 30
0.0
 10
92.173971
 20
48.175060
 30
0.0
 10
91.970771
 20
48.144060
 30
0.0
 10
91.855060
 20
48.079160
 30
0.0
 10
91.792970
 20
48.011460
 30
0.0
 10
91.736530
 20
47.983260
 30
0.0
 10
91.697020
 20
47.997360
 30
0.0
 10
91.680090
 20
48.036860
 30
0.0
  0
LWPOLYLINE
  5
212
100
AcDbEntity
  8
Calque_1
 62
7
100
AcDbPolyline
 90
26
 70
1
 10
96.221662
 20
46.795050
 30
0.0
 10
96.173682
 20
46.721650
 30
0.0
 10
96.046682
 20
46.625650
 30
0.0
 10
95.843482
 20
46.538150
 30
0.0
 10
95.583838
 20
46.501450
 30
0.0
 10
95.126638
 20
46.676420
 30
0.0
 10
94.948838
 20
47.122340
 30
0.0
 10
95.132282
 20
47.582360
 30
0.0
 10
95.597949
 20
47.762980
 30
0.0
 10
96.038215
 20
47.607760
 30
0.0
 10
96.038215
 20
47.644460
 30
0.0
 10
96.097485
 20
47.723460
 30
0.0
 10
96.153925
 20
47.644460
 30
0.0
 10
96.153925
 20
47.387630
 30
0.0
 10
96.097485
 20
47.311430
 30
0.0
 10
96.038215
 20
47.379130
 30
0.0
 10
95.897104
 20
47.568220
 30
0.0
 10
95.589482
 20
47.647220
 30
0.0
 10
95.208482
 20
47.500460
 30
0.0
 10
95.064549
 20
47.125110
 30
0.0
 10
95.211304
 20
46.758220
 30
0.0
 10
95.589482
 20
46.617110
 30
0.0
 10
96.117238
 20
46.820310
 30
0.0
 10
96.168038
 20
46.848510
 30
0.0
 10
96.204728
 20
46.831610
 30
0.0
 10
96.221658
 20
46.794910
 30
0.0
  0
LWPOLYLINE
  5
213
100
AcDbEntity
  8
Calque_1
 62
7
100
AcDbPolyline
 90
25
 70
1
 10
96.928936
 20
47.723560
 30
0.0
 10
97.549825
 20
47.723560
 30
0.0
 10
97.626025
 20
47.667160
 30
0.0
 10
97.549825
 20
47.607860
 30
0.0
 10
96.928936
 20
47.607860
 30
0.0
 10
96.928936
 20
46.854320
 30
0.0
 10
97.013606
 20
46.682170
 30
0.0
 10
97.245028
 20
46.617270
 30
0.0
 10
97.496206
 20
46.648270
 30
0.0
 10
97.713517
 20
46.730170
 30
0.0
 10
97.758677
 20
46.747070
 30
0.0
 10
97.795367
 20
46.730170
 30
0.0
 10
97.812297
 20
46.690670
 30
0.0
 10
97.620386
 20
46.563670
 30
0.0
 10
97.250675
 20
46.501570
 30
0.0
 10
96.931764
 20
46.594670
 30
0.0
 10
96.813230
 20
46.848670
 30
0.0
 10
96.813230
 20
47.607850
 30
0.0
 10
96.604386
 20
47.607850
 30
0.0
 10
96.525366
 20
47.667150
 30
0.0
 10
96.604386
 20
47.723550
 30
0.0
 10
96.813230
 20
47.723550
 30
0.0
 10
96.813230
 20
48.059390
 30
0.0
 10
96.872500
 20
48.135590
 30
0.0
 10
96.928940
 20
48.059390
 30
0.0
  0
LWPOLYLINE
  5
214
100
AcDbEntity
  8
Calque_1
 62
7
100
AcDbPolyline
 90
25
 70
1
 10
99.563790
 20
47.517540
 30
0.0
 10
99.476300
 20
47.576840
 30
0.0
 10
99.332367
 20
47.636140
 30
0.0
 10
99.131989
 20
47.568440
 30
0.0
 10
98.796144
 20
47.286210
 30
0.0
 10
98.796144
 20
46.662500
 30
0.0
 10
99.301322
 20
46.662500
 30
0.0
 10
99.377522
 20
46.603200
 30
0.0
 10
99.301322
 20
46.546800
 30
0.0
 10
98.409500
 20
46.546800
 30
0.0
 10
98.333300
 20
46.606100
 30
0.0
 10
98.409500
 20
46.662500
 30
0.0
 10
98.680433
 20
46.662500
 30
0.0
 10
98.680433
 20
47.607950
 30
0.0
 10
98.468767
 20
47.607950
 30
0.0
 10
98.392567
 20
47.667250
 30
0.0
 10
98.468767
 20
47.723650
 30
0.0
 10
98.796144
 20
47.723650
 30
0.0
 10
98.796144
 20
47.435780
 30
0.0
 10
99.112233
 20
47.681320
 30
0.0
 10
99.340833
 20
47.751820
 30
0.0
 10
99.538389
 20
47.684120
 30
0.0
 10
99.623059
 20
47.576870
 30
0.0
 10
99.606129
 20
47.534570
 30
0.0
 10
99.563799
 20
47.517670
 30
0.0
  0
LWPOLYLINE
  5
215
100
AcDbEntity
  8
Calque_1
 62
7
100
AcDbPolyline
 90
13
 70
1
 10
100.691580
 20
48.251310
 30
0.0
 10
100.691580
 20
46.662400
 30
0.0
 10
101.143130
 20
46.662400
 30
0.0
 10
101.222130
 20
46.606000
 30
0.0
 10
101.143130
 20
46.546700
 30
0.0
 10
100.124310
 20
46.546700
 30
0.0
 10
100.048110
 20
46.606000
 30
0.0
 10
100.124310
 20
46.662400
 30
0.0
 10
100.575870
 20
46.662400
 30
0.0
 10
100.575870
 20
48.135600
 30
0.0
 10
100.245670
 20
48.135600
 30
0.0
 10
100.169470
 20
48.194900
 30
0.0
 10
100.245670
 20
48.251300
 30
0.0
  0
LWPOLYLINE
  5
216
100
AcDbEntity
  8
Calque_1
 62
7
100
AcDbPolyline
 90
20
 70
1
 10
31.297624
 20
19.546780
 30
0.0
 10
31.100069
 20
19.546780
 30
0.0
 10
30.625935
 20
20.607940
 30
0.0
 10
30.510224
 20
20.607940
 30
0.0
 10
30.434024
 20
20.667240
 30
0.0
 10
30.510224
 20
20.723640
 30
0.0
 10
30.936380
 20
20.723640
 30
0.0
 10
31.015400
 20
20.667240
 30
0.0
 10
30.936380
 20
20.607940
 30
0.0
 10
30.752935
 20
20.607940
 30
0.0
 10
31.176269
 20
19.662490
 30
0.0
 10
31.229889
 20
19.662490
 30
0.0
 10
31.644756
 20
20.607940
 30
0.0
 10
31.452844
 20
20.607940
 30
0.0
 10
31.376644
 20
20.667240
 30
0.0
 10
31.452844
 20
20.723640
 30
0.0
 10
31.881822
 20
20.723640
 30
0.0
 10
31.958022
 20
20.667240
 30
0.0
 10
31.881822
 20
20.607940
 30
0.0
 10
31.766111
 20
20.607940
 30
0.0
  0
LWPOLYLINE
  5
217
100
AcDbEntity
  8
Calque_1
 62
7
100
AcDbPolyline
 90
26
 70
1
 10
33.551477
 20
19.795140
 30
0.0
 10
33.503497
 20
19.721740
 30
0.0
 10
33.376497
 20
19.625740
 30
0.0
 10
33.173297
 20
19.538240
 30
0.0
 10
32.913652
 20
19.501540
 30
0.0
 10
32.456452
 20
19.676520
 30
0.0
 10
32.278652
 20
20.122430
 30
0.0
 10
32.462097
 20
20.582450
 30
0.0
 10
32.927763
 20
20.763070
 30
0.0
 10
33.368030
 20
20.607850
 30
0.0
 10
33.368030
 20
20.644550
 30
0.0
 10
33.427300
 20
20.723550
 30
0.0
 10
33.483740
 20
20.644550
 30
0.0
 10
33.483740
 20
20.387730
 30
0.0
 10
33.427300
 20
20.311530
 30
0.0
 10
33.368030
 20
20.379230
 30
0.0
 10
33.226919
 20
20.568320
 30
0.0
 10
32.919297
 20
20.647320
 30
0.0
 10
32.538297
 20
20.500560
 30
0.0
 10
32.394363
 20
20.125210
 30
0.0
 10
32.541119
 20
19.758320
 30
0.0
 10
32.919297
 20
19.617210
 30
0.0
 10
33.447052
 20
19.820410
 30
0.0
 10
33.497852
 20
19.848610
 30
0.0
 10
33.534542
 20
19.831710
 30
0.0
 10
33.551472
 20
19.795010
 30
0.0
  0
LWPOLYLINE
  5
218
100
AcDbEntity
  8
Calque_1
 62
7
100
AcDbPolyline
 90
30
 70
1
 10
35.201375
 20
21.101830
 30
0.0
 10
35.130815
 20
21.109830
 30
0.0
 10
34.972771
 20
21.126730
 30
0.0
 10
34.811904
 20
21.134730
 30
0.0
 10
34.586127
 20
21.067030
 30
0.0
 10
34.498637
 20
20.894880
 30
0.0
 10
34.498637
 20
20.722720
 30
0.0
 10
35.032037
 20
20.722720
 30
0.0
 10
35.108237
 20
20.666320
 30
0.0
 10
35.032037
 20
20.607020
 30
0.0
 10
34.498637
 20
20.607020
 30
0.0
 10
34.498637
 20
19.661570
 30
0.0
 10
35.000992
 20
19.661570
 30
0.0
 10
35.077192
 20
19.605170
 30
0.0
 10
35.000992
 20
19.545870
 30
0.0
 10
34.106348
 20
19.545870
 30
0.0
 10
34.030148
 20
19.605170
 30
0.0
 10
34.106348
 20
19.661570
 30
0.0
 10
34.382926
 20
19.661570
 30
0.0
 10
34.382926
 20
20.607020
 30
0.0
 10
34.134570
 20
20.607020
 30
0.0
 10
34.058370
 20
20.666320
 30
0.0
 10
34.134570
 20
20.722720
 30
0.0
 10
34.382926
 20
20.722720
 30
0.0
 10
34.382926
 20
20.894880
 30
0.0
 10
34.504281
 20
21.148880
 30
0.0
 10
34.817548
 20
21.250480
 30
0.0
 10
35.209837
 20
21.213780
 30
0.0
 10
35.260637
 20
21.157380
 30
0.0
 10
35.201367
 20
21.100980
 30
0.0
  0
LWPOLYLINE
  5
219
100
AcDbEntity
  8
Calque_1
 62
7
100
AcDbPolyline
 90
17
 70
1
 10
38.585837
 20
20.108410
 30
0.0
 10
37.411792
 20
20.108410
 30
0.0
 10
37.598059
 20
19.749980
 30
0.0
 10
37.981881
 20
19.617340
 30
0.0
 10
38.252815
 20
19.659640
 30
0.0
 10
38.475770
 20
19.769710
 30
0.0
 10
38.520930
 20
19.789410
 30
0.0
 10
38.557620
 20
19.772510
 30
0.0
 10
38.574550
 20
19.733010
 30
0.0
 10
38.371350
 20
19.580610
 30
0.0
 10
37.979061
 20
19.501610
 30
0.0
 10
37.493639
 20
19.693520
 30
0.0
 10
37.296083
 20
20.159190
 30
0.0
 10
37.482350
 20
20.588160
 30
0.0
 10
37.939550
 20
20.763140
 30
0.0
 10
38.405217
 20
20.582520
 30
0.0
 10
38.585839
 20
20.108390
 30
0.0
  0
LWPOLYLINE
  5
21a
100
AcDbEntity
  8
Calque_1
 62
7
100
AcDbPolyline
 90
6
 70
1
 10
37.411792
 20
20.224120
 30
0.0
 10
38.467304
 20
20.224120
 30
0.0
 10
38.289504
 20
20.531740
 30
0.0
 10
37.939548
 20
20.647450
 30
0.0
 10
37.592415
 20
20.531740
 30
0.0
 10
37.411792
 20
20.224120
 30
0.0
  0
LWPOLYLINE
  5
21b
100
AcDbEntity
  8
Calque_1
 62
7
100
AcDbPolyline
 90
22
 70
1
 10
40.052290
 20
20.489410
 30
0.0
 10
40.052290
 20
20.723650
 30
0.0
 10
40.320401
 20
20.723650
 30
0.0
 10
40.396601
 20
20.667250
 30
0.0
 10
40.320401
 20
20.607950
 30
0.0
 10
40.168001
 20
20.607950
 30
0.0
 10
40.168001
 20
19.467770
 30
0.0
 10
40.032535
 20
19.154500
 30
0.0
 10
39.702335
 20
19.021860
 30
0.0
 10
39.380601
 20
19.021860
 30
0.0
 10
39.304401
 20
19.081160
 30
0.0
 10
39.380601
 20
19.137560
 30
0.0
 10
39.707979
 20
19.137560
 30
0.0
 10
39.950690
 20
19.239160
 30
0.0
 10
40.052290
 20
19.484690
 30
0.0
 10
40.052290
 20
19.848760
 30
0.0
 10
39.569690
 20
19.575010
 30
0.0
 10
39.157646
 20
19.749980
 30
0.0
 10
38.988313
 20
20.170490
 30
0.0
 10
39.157646
 20
20.588180
 30
0.0
 10
39.569690
 20
20.763160
 30
0.0
 10
40.052290
 20
20.489410
 30
0.0
  0
LWPOLYLINE
  5
21c
100
AcDbEntity
  8
Calque_1
 62
7
100
AcDbPolyline
 90
9
 70
1
 10
39.578157
 20
20.647450
 30
0.0
 10
39.242313
 20
20.509160
 30
0.0
 10
39.104024
 20
20.170490
 30
0.0
 10
39.242313
 20
19.829010
 30
0.0
 10
39.578157
 20
19.690720
 30
0.0
 10
39.914001
 20
19.829010
 30
0.0
 10
40.052290
 20
20.164850
 30
0.0
 10
39.914001
 20
20.509160
 30
0.0
 10
39.578157
 20
20.647450
 30
0.0
  0
LWPOLYLINE
  5
21d
100
AcDbEntity
  8
Calque_1
 62
7
100
AcDbPolyline
 90
37
 70
1
 10
46.264749
 20
20.647450
 30
0.0
 10
46.165969
 20
20.636150
 30
0.0
 10
46.078479
 20
20.605150
 30
0.0
 10
46.010749
 20
20.565650
 30
0.0
 10
45.948659
 20
20.514850
 30
0.0
 10
45.903509
 20
20.464050
 30
0.0
 10
45.863999
 20
20.413250
 30
0.0
 10
45.835779
 20
20.376550
 30
0.0
 10
45.835779
 20
19.662520
 30
0.0
 10
45.962779
 20
19.662520
 30
0.0
 10
46.038979
 20
19.606120
 30
0.0
 10
45.962779
 20
19.546820
 30
0.0
 10
45.593060
 20
19.546820
 30
0.0
 10
45.514040
 20
19.606120
 30
0.0
 10
45.593060
 20
19.662520
 30
0.0
 10
45.720060
 20
19.662520
 30
0.0
 10
45.720060
 20
20.607970
 30
0.0
 10
45.624110
 20
20.607970
 30
0.0
 10
45.547910
 20
20.667270
 30
0.0
 10
45.624110
 20
20.723670
 30
0.0
 10
45.835776
 20
20.723670
 30
0.0
 10
45.835776
 20
20.528940
 30
0.0
 10
46.050265
 20
20.712380
 30
0.0
 10
46.276043
 20
20.763180
 30
0.0
 10
46.592132
 20
20.653110
 30
0.0
 10
46.719132
 20
20.379360
 30
0.0
 10
46.719132
 20
19.662510
 30
0.0
 10
46.815092
 20
19.662510
 30
0.0
 10
46.891292
 20
19.606110
 30
0.0
 10
46.815092
 20
19.546810
 30
0.0
 10
46.507460
 20
19.546810
 30
0.0
 10
46.431260
 20
19.606110
 30
0.0
 10
46.507460
 20
19.662510
 30
0.0
 10
46.603420
 20
19.662510
 30
0.0
 10
46.603420
 20
20.359600
 30
0.0
 10
46.510290
 20
20.562800
 30
0.0
 10
46.264756
 20
20.647500
 30
0.0
  0
LWPOLYLINE
  5
21e
100
AcDbEntity
  8
Calque_1
 62
7
100
AcDbPolyline
 90
9
 70
1
 10
47.903358
 20
20.763160
 30
0.0
 10
48.360558
 20
20.576890
 30
0.0
 10
48.546825
 20
20.125340
 30
0.0
 10
48.357736
 20
19.682250
 30
0.0
 10
47.903358
 20
19.501630
 30
0.0
 10
47.446158
 20
19.685070
 30
0.0
 10
47.259891
 20
20.133810
 30
0.0
 10
47.446158
 20
20.576890
 30
0.0
 10
47.903358
 20
20.763160
 30
0.0
  0
LWPOLYLINE
  5
21f
100
AcDbEntity
  8
Calque_1
 62
7
100
AcDbPolyline
 90
9
 70
1
 10
47.903358
 20
20.647450
 30
0.0
 10
47.528002
 20
20.497870
 30
0.0
 10
47.375602
 20
20.133810
 30
0.0
 10
47.528002
 20
19.766920
 30
0.0
 10
47.903358
 20
19.617340
 30
0.0
 10
48.275891
 20
19.766920
 30
0.0
 10
48.431114
 20
20.125340
 30
0.0
 10
48.278714
 20
20.497870
 30
0.0
 10
47.903358
 20
20.647450
 30
0.0
  0
LWPOLYLINE
  5
220
100
AcDbEntity
  8
Calque_1
 62
7
100
AcDbPolyline
 90
13
 70
1
 10
49.652033
 20
20.723650
 30
0.0
 10
49.652033
 20
19.662490
 30
0.0
 10
50.103589
 20
19.662490
 30
0.0
 10
50.182609
 20
19.606090
 30
0.0
 10
50.103589
 20
19.546790
 30
0.0
 10
49.084767
 20
19.546790
 30
0.0
 10
49.008567
 20
19.606090
 30
0.0
 10
49.084767
 20
19.662490
 30
0.0
 10
49.536322
 20
19.662490
 30
0.0
 10
49.536322
 20
20.607940
 30
0.0
 10
49.203300
 20
20.607940
 30
0.0
 10
49.127100
 20
20.667240
 30
0.0
 10
49.203300
 20
20.723640
 30
0.0
  0
LWPOLYLINE
  5
221
100
AcDbEntity
  8
Calque_1
 62
7
100
AcDbPolyline
 90
4
 70
1
 10
49.646433
 20
21.307850
 30
0.0
 10
49.646433
 20
21.014340
 30
0.0
 10
49.479922
 20
21.014340
 30
0.0
 10
49.479922
 20
21.307850
 30
0.0
  0
LWPOLYLINE
  5
222
100
AcDbEntity
  8
Calque_1
 62
7
100
AcDbPolyline
 90
38
 70
1
 10
51.716797
 20
19.876980
 30
0.0
 10
51.620847
 20
20.037850
 30
0.0
 10
51.389425
 20
20.114050
 30
0.0
 10
51.118491
 20
20.156350
 30
0.0
 10
50.887069
 20
20.249450
 30
0.0
 10
50.791109
 20
20.444180
 30
0.0
 10
50.926575
 20
20.672780
 30
0.0
 10
51.273709
 20
20.763080
 30
0.0
 10
51.660353
 20
20.633260
 30
0.0
 10
51.660353
 20
20.644560
 30
0.0
 10
51.719623
 20
20.723560
 30
0.0
 10
51.776063
 20
20.644560
 30
0.0
 10
51.776063
 20
20.449820
 30
0.0
 10
51.719623
 20
20.373620
 30
0.0
 10
51.660353
 20
20.438520
 30
0.0
 10
51.547464
 20
20.590920
 30
0.0
 10
51.284997
 20
20.647320
 30
0.0
 10
51.022531
 20
20.585220
 30
0.0
 10
50.918109
 20
20.435640
 30
0.0
 10
51.014059
 20
20.305820
 30
0.0
 10
51.245481
 20
20.240920
 30
0.0
 10
51.516415
 20
20.195720
 30
0.0
 10
51.747837
 20
20.088480
 30
0.0
 10
51.843797
 20
19.873990
 30
0.0
 10
51.685753
 20
19.605880
 30
0.0
 10
51.290642
 20
19.501460
 30
0.0
 10
50.847553
 20
19.653860
 30
0.0
 10
50.847553
 20
19.622860
 30
0.0
 10
50.791113
 20
19.546660
 30
0.0
 10
50.731843
 20
19.622860
 30
0.0
 10
50.731843
 20
19.857110
 30
0.0
 10
50.791113
 20
19.933310
 30
0.0
 10
50.847553
 20
19.871210
 30
0.0
 10
50.847553
 20
19.851410
 30
0.0
 10
50.974553
 20
19.684900
 30
0.0
 10
51.282175
 20
19.617200
 30
0.0
 10
51.592620
 20
19.690600
 30
0.0
 10
51.716797
 20
19.876860
 30
0.0
  0
LWPOLYLINE
  5
223
100
AcDbEntity
  8
Calque_1
 62
7
100
AcDbPolyline
 90
17
 70
1
 10
53.600940
 20
20.108410
 30
0.0
 10
52.426895
 20
20.108410
 30
0.0
 10
52.613162
 20
19.749980
 30
0.0
 10
52.996984
 20
19.617340
 30
0.0
 10
53.267917
 20
19.659640
 30
0.0
 10
53.490873
 20
19.769710
 30
0.0
 10
53.536033
 20
19.789410
 30
0.0
 10
53.572723
 20
19.772510
 30
0.0
 10
53.589653
 20
19.733010
 30
0.0
 10
53.386453
 20
19.580610
 30
0.0
 10
52.994164
 20
19.501610
 30
0.0
 10
52.508742
 20
19.693520
 30
0.0
 10
52.311186
 20
20.159190
 30
0.0
 10
52.497453
 20
20.588160
 30
0.0
 10
52.954653
 20
20.763140
 30
0.0
 10
53.420319
 20
20.582520
 30
0.0
 10
53.600942
 20
20.108390
 30
0.0
  0
LWPOLYLINE
  5
224
100
AcDbEntity
  8
Calque_1
 62
7
100
AcDbPolyline
 90
6
 70
1
 10
52.426895
 20
20.224120
 30
0.0
 10
53.482406
 20
20.224120
 30
0.0
 10
53.304606
 20
20.531740
 30
0.0
 10
52.954651
 20
20.647450
 30
0.0
 10
52.607517
 20
20.531740
 30
0.0
 10
52.426895
 20
20.224120
 30
0.0
  0
LWPOLYLINE
  5
225
100
AcDbEntity
  8
Calque_1
 62
7
100
AcDbPolyline
 90
24
 70
1
 10
19.551782
 20
33.373990
 30
0.0
 10
19.551782
 20
33.725350
 30
0.0
 10
19.953948
 20
33.725350
 30
0.0
 10
20.068248
 20
33.640650
 30
0.0
 10
19.953948
 20
33.551750
 30
0.0
 10
19.725348
 20
33.551750
 30
0.0
 10
19.725348
 20
31.841480
 30
0.0
 10
19.522148
 20
31.371580
 30
0.0
 10
19.026848
 20
31.172610
 30
0.0
 10
18.544249
 20
31.172610
 30
0.0
 10
18.429949
 20
31.261510
 30
0.0
 10
18.544249
 20
31.346210
 30
0.0
 10
19.035315
 20
31.346210
 30
0.0
 10
19.399382
 20
31.498610
 30
0.0
 10
19.551782
 20
31.866910
 30
0.0
 10
19.551782
 20
32.413010
 30
0.0
 10
19.231107
 20
32.105038
 30
0.0
 10
18.827882
 20
32.002380
 30
0.0
 10
18.209815
 20
32.264840
 30
0.0
 10
17.955815
 20
32.895610
 30
0.0
 10
18.209815
 20
33.522140
 30
0.0
 10
18.827882
 20
33.784610
 30
0.0
 10
19.233224
 20
33.681953
 30
0.0
 10
19.551782
 20
33.373980
 30
0.0
  0
LWPOLYLINE
  5
226
100
AcDbEntity
  8
Calque_1
 62
7
100
AcDbPolyline
 90
9
 70
1
 10
18.840582
 20
33.611050
 30
0.0
 10
18.336815
 20
33.403620
 30
0.0
 10
18.129382
 20
32.895620
 30
0.0
 10
18.336815
 20
32.383390
 30
0.0
 10
18.840582
 20
32.175950
 30
0.0
 10
19.344348
 20
32.383390
 30
0.0
 10
19.551782
 20
32.887150
 30
0.0
 10
19.344348
 20
33.403620
 30
0.0
 10
18.840582
 20
33.611050
 30
0.0
  0
LWPOLYLINE
  5
227
100
AcDbEntity
  8
Calque_1
 62
7
100
AcDbPolyline
 90
13
 70
1
 10
21.582128
 20
34.516990
 30
0.0
 10
21.582128
 20
32.133620
 30
0.0
 10
22.259461
 20
32.133620
 30
0.0
 10
22.377995
 20
32.048920
 30
0.0
 10
22.259461
 20
31.960020
 30
0.0
 10
20.731228
 20
31.960020
 30
0.0
 10
20.616928
 20
32.048920
 30
0.0
 10
20.731228
 20
32.133620
 30
0.0
 10
21.408561
 20
32.133620
 30
0.0
 10
21.408561
 20
34.343420
 30
0.0
 10
20.913261
 20
34.343420
 30
0.0
 10
20.798961
 20
34.432320
 30
0.0
 10
20.913261
 20
34.517020
 30
0.0
  0
LWPOLYLINE
  5
228
100
AcDbEntity
  8
Calque_1
 62
7
100
AcDbPolyline
 90
13
 70
1
 10
24.120474
 20
33.725350
 30
0.0
 10
24.120474
 20
32.133620
 30
0.0
 10
24.797808
 20
32.133620
 30
0.0
 10
24.916341
 20
32.048920
 30
0.0
 10
24.797808
 20
31.960020
 30
0.0
 10
23.269574
 20
31.960020
 30
0.0
 10
23.155274
 20
32.048920
 30
0.0
 10
23.269574
 20
32.133620
 30
0.0
 10
23.946908
 20
32.133620
 30
0.0
 10
23.946908
 20
33.551790
 30
0.0
 10
23.447374
 20
33.551790
 30
0.0
 10
23.333074
 20
33.640690
 30
0.0
 10
23.447374
 20
33.725390
 30
0.0
  0
LWPOLYLINE
  5
229
100
AcDbEntity
  8
Calque_1
 62
7
100
AcDbPolyline
 90
4
 70
1
 10
24.111974
 20
34.601650
 30
0.0
 10
24.111974
 20
34.161390
 30
0.0
 10
23.862207
 20
34.161390
 30
0.0
 10
23.862207
 20
34.601650
 30
0.0
  0
LWPOLYLINE
  5
22a
100
AcDbEntity
  8
Calque_1
 62
7
100
AcDbPolyline
 90
19
 70
1
 10
27.429287
 20
34.516990
 30
0.0
 10
27.429287
 20
32.133620
 30
0.0
 10
27.657887
 20
32.133620
 30
0.0
 10
27.772187
 20
32.048920
 30
0.0
 10
27.657887
 20
31.960020
 30
0.0
 10
27.255721
 20
31.960020
 30
0.0
 10
27.255721
 20
32.336790
 30
0.0
 10
26.912821
 20
32.003415
 30
0.0
 10
26.485254
 20
31.892290
 30
0.0
 10
25.837554
 20
32.171690
 30
0.0
 10
25.570854
 20
32.840560
 30
0.0
 10
25.837554
 20
33.505190
 30
0.0
 10
26.485254
 20
33.784590
 30
0.0
 10
26.910704
 20
33.674523
 30
0.0
 10
27.255721
 20
33.344320
 30
0.0
 10
27.255721
 20
34.343390
 30
0.0
 10
27.027121
 20
34.343390
 30
0.0
 10
26.912821
 20
34.432290
 30
0.0
 10
27.027121
 20
34.516990
 30
0.0
  0
LWPOLYLINE
  5
22b
100
AcDbEntity
  8
Calque_1
 62
7
100
AcDbPolyline
 90
9
 70
1
 10
26.497954
 20
33.611050
 30
0.0
 10
25.964554
 20
33.386690
 30
0.0
 10
25.744421
 20
32.840590
 30
0.0
 10
25.964554
 20
32.290250
 30
0.0
 10
26.502187
 20
32.065890
 30
0.0
 10
27.035587
 20
32.290250
 30
0.0
 10
27.255721
 20
32.832120
 30
0.0
 10
27.035587
 20
33.386690
 30
0.0
 10
26.497954
 20
33.611050
 30
0.0
  0
LWPOLYLINE
  5
22c
100
AcDbEntity
  8
Calque_1
 62
7
100
AcDbPolyline
 90
22
 70
1
 10
30.043834
 20
32.802490
 30
0.0
 10
28.282767
 20
32.802490
 30
0.0
 10
28.562167
 20
32.264850
 30
0.0
 10
29.137900
 20
32.065890
 30
0.0
 10
29.544300
 20
32.129390
 30
0.0
 10
29.878734
 20
32.294490
 30
0.0
 10
29.946464
 20
32.324090
 30
0.0
 10
30.001494
 20
32.298690
 30
0.0
 10
30.026894
 20
32.239390
 30
0.0
 10
29.722094
 20
32.010790
 30
0.0
 10
29.133661
 20
31.892260
 30
0.0
 10
28.737844
 20
31.964228
 30
0.0
 10
28.405528
 20
32.180130
 30
0.0
 10
28.183278
 20
32.498685
 30
0.0
 10
28.109194
 20
32.878630
 30
0.0
 10
28.179044
 20
33.232110
 30
0.0
 10
28.388594
 20
33.522090
 30
0.0
 10
29.074394
 20
33.784560
 30
0.0
 10
29.462803
 20
33.716828
 30
0.0
 10
29.772894
 20
33.513630
 30
0.0
 10
29.976095
 20
33.202480
 30
0.0
 10
30.043828
 20
32.802430
 30
0.0
  0
LWPOLYLINE
  5
22d
100
AcDbEntity
  8
Calque_1
 62
7
100
AcDbPolyline
 90
6
 70
1
 10
28.282767
 20
32.976050
 30
0.0
 10
29.866034
 20
32.976050
 30
0.0
 10
29.599334
 20
33.437490
 30
0.0
 10
29.074400
 20
33.611050
 30
0.0
 10
28.553700
 20
33.437490
 30
0.0
 10
28.282767
 20
32.976050
 30
0.0
  0
LWPOLYLINE
  5
22e
100
AcDbEntity
  8
Calque_1
 62
7
100
AcDbPolyline
 90
25
 70
1
 10
409.440110
 20
15.416320
 30
0.0
 10
409.308870
 20
15.505220
 30
0.0
 10
409.092970
 20
15.594120
 30
0.0
 10
408.792410
 20
15.492520
 30
0.0
 10
408.288640
 20
15.069190
 30
0.0
 10
408.288640
 20
14.133620
 30
0.0
 10
409.046410
 20
14.133620
 30
0.0
 10
409.160710
 20
14.044720
 30
0.0
 10
409.046410
 20
13.960020
 30
0.0
 10
407.708670
 20
13.960020
 30
0.0
 10
407.594370
 20
14.048920
 30
0.0
 10
407.708670
 20
14.133620
 30
0.0
 10
408.115070
 20
14.133620
 30
0.0
 10
408.115070
 20
15.551790
 30
0.0
 10
407.797570
 20
15.551790
 30
0.0
 10
407.683270
 20
15.640690
 30
0.0
 10
407.797570
 20
15.725390
 30
0.0
 10
408.288640
 20
15.725390
 30
0.0
 10
408.288640
 20
15.293590
 30
0.0
 10
408.762770
 20
15.661890
 30
0.0
 10
409.105670
 20
15.767730
 30
0.0
 10
409.402010
 20
15.666130
 30
0.0
 10
409.529010
 20
15.505260
 30
0.0
 10
409.503610
 20
15.441760
 30
0.0
 10
409.440110
 20
15.416360
 30
0.0
  0
LWPOLYLINE
  5
22f
100
AcDbEntity
  8
Calque_1
 62
7
100
AcDbPolyline
 90
22
 70
1
 10
411.978450
 20
14.802490
 30
0.0
 10
410.217390
 20
14.802490
 30
0.0
 10
410.496790
 20
14.264850
 30
0.0
 10
411.072520
 20
14.065890
 30
0.0
 10
411.478920
 20
14.129390
 30
0.0
 10
411.813350
 20
14.294490
 30
0.0
 10
411.881050
 20
14.324090
 30
0.0
 10
411.936050
 20
14.298690
 30
0.0
 10
411.961450
 20
14.239390
 30
0.0
 10
411.656650
 20
14.010790
 30
0.0
 10
411.068220
 20
13.892260
 30
0.0
 10
410.672400
 20
13.964228
 30
0.0
 10
410.340080
 20
14.180130
 30
0.0
 10
410.117833
 20
14.498685
 30
0.0
 10
410.043750
 20
14.878630
 30
0.0
 10
410.113600
 20
15.232110
 30
0.0
 10
410.323150
 20
15.522090
 30
0.0
 10
411.008950
 20
15.784560
 30
0.0
 10
411.397360
 20
15.716828
 30
0.0
 10
411.707450
 20
15.513630
 30
0.0
 10
411.910648
 20
15.202480
 30
0.0
 10
411.978380
 20
14.802430
 30
0.0
  0
LWPOLYLINE
  5
230
100
AcDbEntity
  8
Calque_1
 62
7
100
AcDbPolyline
 90
6
 70
1
 10
410.217390
 20
14.976050
 30
0.0
 10
411.800650
 20
14.976050
 30
0.0
 10
411.533950
 20
15.437490
 30
0.0
 10
411.009020
 20
15.611050
 30
0.0
 10
410.488320
 20
15.437490
 30
0.0
 10
410.217390
 20
14.976050
 30
0.0
  0
LWPOLYLINE
  5
231
100
AcDbEntity
  8
Calque_1
 62
7
100
AcDbPolyline
 90
13
 70
1
 10
413.670130
 20
16.516990
 30
0.0
 10
413.670130
 20
14.133620
 30
0.0
 10
414.347470
 20
14.133620
 30
0.0
 10
414.466000
 20
14.048920
 30
0.0
 10
414.347470
 20
13.960020
 30
0.0
 10
412.819230
 20
13.960020
 30
0.0
 10
412.704930
 20
14.048920
 30
0.0
 10
412.819230
 20
14.133620
 30
0.0
 10
413.496570
 20
14.133620
 30
0.0
 10
413.496570
 20
16.343420
 30
0.0
 10
413.001270
 20
16.343420
 30
0.0
 10
412.886970
 20
16.432320
 30
0.0
 10
413.001270
 20
16.517020
 30
0.0
  0
LWPOLYLINE
  5
232
100
AcDbEntity
  8
Calque_1
 62
7
100
AcDbPolyline
 90
22
 70
1
 10
417.055150
 20
14.802490
 30
0.0
 10
415.294080
 20
14.802490
 30
0.0
 10
415.573480
 20
14.264850
 30
0.0
 10
416.149210
 20
14.065890
 30
0.0
 10
416.555610
 20
14.129390
 30
0.0
 10
416.890050
 20
14.294490
 30
0.0
 10
416.957750
 20
14.324090
 30
0.0
 10
417.012750
 20
14.298690
 30
0.0
 10
417.038150
 20
14.239390
 30
0.0
 10
416.733350
 20
14.010790
 30
0.0
 10
416.144920
 20
13.892260
 30
0.0
 10
415.749103
 20
13.964228
 30
0.0
 10
415.416790
 20
14.180130
 30
0.0
 10
415.194535
 20
14.498685
 30
0.0
 10
415.120450
 20
14.878630
 30
0.0
 10
415.190300
 20
15.232110
 30
0.0
 10
415.399850
 20
15.522090
 30
0.0
 10
416.085650
 20
15.784560
 30
0.0
 10
416.474060
 20
15.716828
 30
0.0
 10
416.784150
 20
15.513630
 30
0.0
 10
416.987355
 20
15.202480
 30
0.0
 10
417.055090
 20
14.802430
 30
0.0
  0
LWPOLYLINE
  5
233
100
AcDbEntity
  8
Calque_1
 62
7
100
AcDbPolyline
 90
6
 70
1
 10
415.294080
 20
14.976050
 30
0.0
 10
416.877350
 20
14.976050
 30
0.0
 10
416.610650
 20
15.437490
 30
0.0
 10
416.085710
 20
15.611050
 30
0.0
 10
415.565010
 20
15.437490
 30
0.0
 10
415.294080
 20
14.976050
 30
0.0
  0
LWPOLYLINE
  5
234
100
AcDbEntity
  8
Calque_1
 62
7
100
AcDbPolyline
 90
25
 70
1
 10
417.921330
 20
15.560250
 30
0.0
 10
418.209190
 20
15.716890
 30
0.0
 10
418.657930
 20
15.784590
 30
0.0
 10
419.144760
 20
15.636420
 30
0.0
 10
419.339490
 20
15.263890
 30
0.0
 10
419.339490
 20
14.133590
 30
0.0
 10
419.568090
 20
14.133590
 30
0.0
 10
419.682390
 20
14.048890
 30
0.0
 10
419.568090
 20
13.959990
 30
0.0
 10
419.165930
 20
13.959990
 30
0.0
 10
419.165930
 20
14.243630
 30
0.0
 10
418.775403
 20
13.980103
 30
0.0
 10
418.357360
 20
13.892260
 30
0.0
 10
417.878990
 20
14.040430
 30
0.0
 10
417.696960
 20
14.434130
 30
0.0
 10
417.942490
 20
14.878630
 30
0.0
 10
418.590190
 20
15.052190
 30
0.0
 10
419.165930
 20
14.963290
 30
0.0
 10
419.165930
 20
15.263860
 30
0.0
 10
419.021990
 20
15.513630
 30
0.0
 10
418.645230
 20
15.611030
 30
0.0
 10
418.243060
 20
15.543330
 30
0.0
 10
418.001760
 20
15.475630
 30
0.0
 10
417.942460
 20
15.501030
 30
0.0
 10
417.921260
 20
15.560330
 30
0.0
  0
LWPOLYLINE
  5
235
100
AcDbEntity
  8
Calque_1
 62
7
100
AcDbPolyline
 90
9
 70
1
 10
419.165930
 20
14.434190
 30
0.0
 10
419.165930
 20
14.815190
 30
0.0
 10
418.624060
 20
14.878690
 30
0.0
 10
418.077960
 20
14.751690
 30
0.0
 10
417.870530
 20
14.429950
 30
0.0
 10
418.001760
 20
14.163250
 30
0.0
 10
418.353130
 20
14.065850
 30
0.0
 10
418.763760
 20
14.150550
 30
0.0
 10
419.165930
 20
14.434190
 30
0.0
  0
LWPOLYLINE
  5
236
100
AcDbEntity
  8
Calque_1
 62
7
100
AcDbPolyline
 90
38
 70
1
 10
421.843970
 20
14.455350
 30
0.0
 10
421.700040
 20
14.696650
 30
0.0
 10
421.352910
 20
14.810950
 30
0.0
 10
420.946510
 20
14.874450
 30
0.0
 10
420.599370
 20
15.014150
 30
0.0
 10
420.455440
 20
15.306250
 30
0.0
 10
420.658640
 20
15.649150
 30
0.0
 10
421.179340
 20
15.784620
 30
0.0
 10
421.759310
 20
15.589890
 30
0.0
 10
421.759310
 20
15.606790
 30
0.0
 10
421.848210
 20
15.725320
 30
0.0
 10
421.932910
 20
15.606790
 30
0.0
 10
421.932910
 20
15.314690
 30
0.0
 10
421.848210
 20
15.200390
 30
0.0
 10
421.759310
 20
15.297790
 30
0.0
 10
421.589970
 20
15.526390
 30
0.0
 10
421.196270
 20
15.611090
 30
0.0
 10
420.802570
 20
15.517990
 30
0.0
 10
420.645940
 20
15.293620
 30
0.0
 10
420.789870
 20
15.098890
 30
0.0
 10
421.137010
 20
15.001490
 30
0.0
 10
421.543410
 20
14.933790
 30
0.0
 10
421.890540
 20
14.772920
 30
0.0
 10
422.034470
 20
14.451190
 30
0.0
 10
421.797410
 20
14.049020
 30
0.0
 10
421.204740
 20
13.892390
 30
0.0
 10
420.540110
 20
14.120990
 30
0.0
 10
420.540110
 20
14.074390
 30
0.0
 10
420.455410
 20
13.960090
 30
0.0
 10
420.366510
 20
14.074390
 30
0.0
 10
420.366510
 20
14.425760
 30
0.0
 10
420.455410
 20
14.540060
 30
0.0
 10
420.540110
 20
14.446960
 30
0.0
 10
420.540110
 20
14.417360
 30
0.0
 10
420.730610
 20
14.167600
 30
0.0
 10
421.192040
 20
14.066000
 30
0.0
 10
421.657710
 20
14.176060
 30
0.0
 10
421.843970
 20
14.455460
 30
0.0
  0
LWPOLYLINE
  5
237
100
AcDbEntity
  8
Calque_1
 62
7
100
AcDbPolyline
 90
22
 70
1
 10
424.670190
 20
14.802490
 30
0.0
 10
422.909120
 20
14.802490
 30
0.0
 10
423.188520
 20
14.264850
 30
0.0
 10
423.764250
 20
14.065890
 30
0.0
 10
424.170650
 20
14.129390
 30
0.0
 10
424.505090
 20
14.294490
 30
0.0
 10
424.572790
 20
14.324090
 30
0.0
 10
424.627790
 20
14.298690
 30
0.0
 10
424.653190
 20
14.239390
 30
0.0
 10
424.348390
 20
14.010790
 30
0.0
 10
423.759960
 20
13.892260
 30
0.0
 10
423.364143
 20
13.964228
 30
0.0
 10
423.031830
 20
14.180130
 30
0.0
 10
422.809575
 20
14.498685
 30
0.0
 10
422.735490
 20
14.878630
 30
0.0
 10
422.805340
 20
15.232110
 30
0.0
 10
423.014890
 20
15.522090
 30
0.0
 10
423.700690
 20
15.784560
 30
0.0
 10
424.089100
 20
15.716828
 30
0.0
 10
424.399190
 20
15.513630
 30
0.0
 10
424.602395
 20
15.202480
 30
0.0
 10
424.670130
 20
14.802430
 30
0.0
  0
LWPOLYLINE
  5
238
100
AcDbEntity
  8
Calque_1
 62
7
100
AcDbPolyline
 90
6
 70
1
 10
422.909120
 20
14.976050
 30
0.0
 10
424.492390
 20
14.976050
 30
0.0
 10
424.225690
 20
15.437490
 30
0.0
 10
423.700750
 20
15.611050
 30
0.0
 10
423.180050
 20
15.437490
 30
0.0
 10
422.909120
 20
14.976050
 30
0.0
  0
LWPOLYLINE
  5
239
100
AcDbEntity
  8
Calque_1
 62
7
100
AcDbPolyline
 90
25
 70
1
 10
409.440110
 20
51.416320
 30
0.0
 10
409.308870
 20
51.505220
 30
0.0
 10
409.092970
 20
51.594120
 30
0.0
 10
408.792410
 20
51.492520
 30
0.0
 10
408.288640
 20
51.069190
 30
0.0
 10
408.288640
 20
50.133620
 30
0.0
 10
409.046410
 20
50.133620
 30
0.0
 10
409.160710
 20
50.044720
 30
0.0
 10
409.046410
 20
49.960020
 30
0.0
 10
407.708670
 20
49.960020
 30
0.0
 10
407.594370
 20
50.048920
 30
0.0
 10
407.708670
 20
50.133620
 30
0.0
 10
408.115070
 20
50.133620
 30
0.0
 10
408.115070
 20
51.551790
 30
0.0
 10
407.797570
 20
51.551790
 30
0.0
 10
407.683270
 20
51.640690
 30
0.0
 10
407.797570
 20
51.725390
 30
0.0
 10
408.288640
 20
51.725390
 30
0.0
 10
408.288640
 20
51.293590
 30
0.0
 10
408.762770
 20
51.661890
 30
0.0
 10
409.105670
 20
51.767730
 30
0.0
 10
409.402010
 20
51.666130
 30
0.0
 10
409.529010
 20
51.505260
 30
0.0
 10
409.503610
 20
51.441760
 30
0.0
 10
409.440110
 20
51.416360
 30
0.0
  0
LWPOLYLINE
  5
23a
100
AcDbEntity
  8
Calque_1
 62
7
100
AcDbPolyline
 90
22
 70
1
 10
411.978450
 20
50.802490
 30
0.0
 10
410.217390
 20
50.802490
 30
0.0
 10
410.496790
 20
50.264850
 30
0.0
 10
411.072520
 20
50.065890
 30
0.0
 10
411.478920
 20
50.129390
 30
0.0
 10
411.813350
 20
50.294490
 30
0.0
 10
411.881050
 20
50.324090
 30
0.0
 10
411.936050
 20
50.298690
 30
0.0
 10
411.961450
 20
50.239390
 30
0.0
 10
411.656650
 20
50.010790
 30
0.0
 10
411.068220
 20
49.892260
 30
0.0
 10
410.672400
 20
49.964228
 30
0.0
 10
410.340080
 20
50.180130
 30
0.0
 10
410.117833
 20
50.498685
 30
0.0
 10
410.043750
 20
50.878630
 30
0.0
 10
410.113600
 20
51.232110
 30
0.0
 10
410.323150
 20
51.522090
 30
0.0
 10
411.008950
 20
51.784560
 30
0.0
 10
411.397360
 20
51.716828
 30
0.0
 10
411.707450
 20
51.513630
 30
0.0
 10
411.910648
 20
51.202480
 30
0.0
 10
411.978380
 20
50.802430
 30
0.0
  0
LWPOLYLINE
  5
23b
100
AcDbEntity
  8
Calque_1
 62
7
100
AcDbPolyline
 90
6
 70
1
 10
410.217390
 20
50.976050
 30
0.0
 10
411.800650
 20
50.976050
 30
0.0
 10
411.533950
 20
51.437490
 30
0.0
 10
411.009020
 20
51.611050
 30
0.0
 10
410.488320
 20
51.437490
 30
0.0
 10
410.217390
 20
50.976050
 30
0.0
  0
LWPOLYLINE
  5
23c
100
AcDbEntity
  8
Calque_1
 62
7
100
AcDbPolyline
 90
13
 70
1
 10
413.670130
 20
52.516990
 30
0.0
 10
413.670130
 20
50.133620
 30
0.0
 10
414.347470
 20
50.133620
 30
0.0
 10
414.466000
 20
50.048920
 30
0.0
 10
414.347470
 20
49.960020
 30
0.0
 10
412.819230
 20
49.960020
 30
0.0
 10
412.704930
 20
50.048920
 30
0.0
 10
412.819230
 20
50.133620
 30
0.0
 10
413.496570
 20
50.133620
 30
0.0
 10
413.496570
 20
52.343420
 30
0.0
 10
413.001270
 20
52.343420
 30
0.0
 10
412.886970
 20
52.432320
 30
0.0
 10
413.001270
 20
52.517020
 30
0.0
  0
LWPOLYLINE
  5
23d
100
AcDbEntity
  8
Calque_1
 62
7
100
AcDbPolyline
 90
22
 70
1
 10
417.055150
 20
50.802490
 30
0.0
 10
415.294080
 20
50.802490
 30
0.0
 10
415.573480
 20
50.264850
 30
0.0
 10
416.149210
 20
50.065890
 30
0.0
 10
416.555610
 20
50.129390
 30
0.0
 10
416.890050
 20
50.294490
 30
0.0
 10
416.957750
 20
50.324090
 30
0.0
 10
417.012750
 20
50.298690
 30
0.0
 10
417.038150
 20
50.239390
 30
0.0
 10
416.733350
 20
50.010790
 30
0.0
 10
416.144920
 20
49.892260
 30
0.0
 10
415.749103
 20
49.964228
 30
0.0
 10
415.416790
 20
50.180130
 30
0.0
 10
415.194535
 20
50.498685
 30
0.0
 10
415.120450
 20
50.878630
 30
0.0
 10
415.190300
 20
51.232110
 30
0.0
 10
415.399850
 20
51.522090
 30
0.0
 10
416.085650
 20
51.784560
 30
0.0
 10
416.474060
 20
51.716828
 30
0.0
 10
416.784150
 20
51.513630
 30
0.0
 10
416.987355
 20
51.202480
 30
0.0
 10
417.055090
 20
50.802430
 30
0.0
  0
LWPOLYLINE
  5
23e
100
AcDbEntity
  8
Calque_1
 62
7
100
AcDbPolyline
 90
6
 70
1
 10
415.294080
 20
50.976050
 30
0.0
 10
416.877350
 20
50.976050
 30
0.0
 10
416.610650
 20
51.437490
 30
0.0
 10
416.085710
 20
51.611050
 30
0.0
 10
415.565010
 20
51.437490
 30
0.0
 10
415.294080
 20
50.976050
 30
0.0
  0
LWPOLYLINE
  5
23f
100
AcDbEntity
  8
Calque_1
 62
7
100
AcDbPolyline
 90
25
 70
1
 10
417.921330
 20
51.560250
 30
0.0
 10
418.209190
 20
51.716890
 30
0.0
 10
418.657930
 20
51.784590
 30
0.0
 10
419.144760
 20
51.636420
 30
0.0
 10
419.339490
 20
51.263890
 30
0.0
 10
419.339490
 20
50.133590
 30
0.0
 10
419.568090
 20
50.133590
 30
0.0
 10
419.682390
 20
50.048890
 30
0.0
 10
419.568090
 20
49.959990
 30
0.0
 10
419.165930
 20
49.959990
 30
0.0
 10
419.165930
 20
50.243630
 30
0.0
 10
418.775403
 20
49.980103
 30
0.0
 10
418.357360
 20
49.892260
 30
0.0
 10
417.878990
 20
50.040430
 30
0.0
 10
417.696960
 20
50.434130
 30
0.0
 10
417.942490
 20
50.878630
 30
0.0
 10
418.590190
 20
51.052190
 30
0.0
 10
419.165930
 20
50.963290
 30
0.0
 10
419.165930
 20
51.263860
 30
0.0
 10
419.021990
 20
51.513630
 30
0.0
 10
418.645230
 20
51.611030
 30
0.0
 10
418.243060
 20
51.543330
 30
0.0
 10
418.001760
 20
51.475630
 30
0.0
 10
417.942460
 20
51.501030
 30
0.0
 10
417.921260
 20
51.560330
 30
0.0
  0
LWPOLYLINE
  5
240
100
AcDbEntity
  8
Calque_1
 62
7
100
AcDbPolyline
 90
9
 70
1
 10
419.165930
 20
50.434190
 30
0.0
 10
419.165930
 20
50.815190
 30
0.0
 10
418.624060
 20
50.878690
 30
0.0
 10
418.077960
 20
50.751690
 30
0.0
 10
417.870530
 20
50.429950
 30
0.0
 10
418.001760
 20
50.163250
 30
0.0
 10
418.353130
 20
50.065850
 30
0.0
 10
418.763760
 20
50.150550
 30
0.0
 10
419.165930
 20
50.434190
 30
0.0
  0
LWPOLYLINE
  5
241
100
AcDbEntity
  8
Calque_1
 62
7
100
AcDbPolyline
 90
38
 70
1
 10
421.843970
 20
50.455350
 30
0.0
 10
421.700040
 20
50.696650
 30
0.0
 10
421.352910
 20
50.810950
 30
0.0
 10
420.946510
 20
50.874450
 30
0.0
 10
420.599370
 20
51.014150
 30
0.0
 10
420.455440
 20
51.306250
 30
0.0
 10
420.658640
 20
51.649150
 30
0.0
 10
421.179340
 20
51.784620
 30
0.0
 10
421.759310
 20
51.589890
 30
0.0
 10
421.759310
 20
51.606790
 30
0.0
 10
421.848210
 20
51.725320
 30
0.0
 10
421.932910
 20
51.606790
 30
0.0
 10
421.932910
 20
51.314690
 30
0.0
 10
421.848210
 20
51.200390
 30
0.0
 10
421.759310
 20
51.297790
 30
0.0
 10
421.589970
 20
51.526390
 30
0.0
 10
421.196270
 20
51.611090
 30
0.0
 10
420.802570
 20
51.517990
 30
0.0
 10
420.645940
 20
51.293620
 30
0.0
 10
420.789870
 20
51.098890
 30
0.0
 10
421.137010
 20
51.001490
 30
0.0
 10
421.543410
 20
50.933790
 30
0.0
 10
421.890540
 20
50.772920
 30
0.0
 10
422.034470
 20
50.451190
 30
0.0
 10
421.797410
 20
50.049020
 30
0.0
 10
421.204740
 20
49.892390
 30
0.0
 10
420.540110
 20
50.120990
 30
0.0
 10
420.540110
 20
50.074390
 30
0.0
 10
420.455410
 20
49.960090
 30
0.0
 10
420.366510
 20
50.074390
 30
0.0
 10
420.366510
 20
50.425760
 30
0.0
 10
420.455410
 20
50.540060
 30
0.0
 10
420.540110
 20
50.446960
 30
0.0
 10
420.540110
 20
50.417360
 30
0.0
 10
420.730610
 20
50.167600
 30
0.0
 10
421.192040
 20
50.066000
 30
0.0
 10
421.657710
 20
50.176060
 30
0.0
 10
421.843970
 20
50.455460
 30
0.0
  0
LWPOLYLINE
  5
242
100
AcDbEntity
  8
Calque_1
 62
7
100
AcDbPolyline
 90
22
 70
1
 10
424.670190
 20
50.802490
 30
0.0
 10
422.909120
 20
50.802490
 30
0.0
 10
423.188520
 20
50.264850
 30
0.0
 10
423.764250
 20
50.065890
 30
0.0
 10
424.170650
 20
50.129390
 30
0.0
 10
424.505090
 20
50.294490
 30
0.0
 10
424.572790
 20
50.324090
 30
0.0
 10
424.627790
 20
50.298690
 30
0.0
 10
424.653190
 20
50.239390
 30
0.0
 10
424.348390
 20
50.010790
 30
0.0
 10
423.759960
 20
49.892260
 30
0.0
 10
423.364143
 20
49.964228
 30
0.0
 10
423.031830
 20
50.180130
 30
0.0
 10
422.809575
 20
50.498685
 30
0.0
 10
422.735490
 20
50.878630
 30
0.0
 10
422.805340
 20
51.232110
 30
0.0
 10
423.014890
 20
51.522090
 30
0.0
 10
423.700690
 20
51.784560
 30
0.0
 10
424.089100
 20
51.716828
 30
0.0
 10
424.399190
 20
51.513630
 30
0.0
 10
424.602395
 20
51.202480
 30
0.0
 10
424.670130
 20
50.802430
 30
0.0
  0
LWPOLYLINE
  5
243
100
AcDbEntity
  8
Calque_1
 62
7
100
AcDbPolyline
 90
6
 70
1
 10
422.909120
 20
50.976050
 30
0.0
 10
424.492390
 20
50.976050
 30
0.0
 10
424.225690
 20
51.437490
 30
0.0
 10
423.700750
 20
51.611050
 30
0.0
 10
423.180050
 20
51.437490
 30
0.0
 10
422.909120
 20
50.976050
 30
0.0
  0
LWPOLYLINE
  5
244
100
AcDbEntity
  8
Calque_1
 62
7
100
AcDbPolyline
 90
13
 70
1
 10
296.858730
 20
88.516990
 30
0.0
 10
296.858730
 20
86.133620
 30
0.0
 10
297.536070
 20
86.133620
 30
0.0
 10
297.654600
 20
86.048920
 30
0.0
 10
297.536070
 20
85.960020
 30
0.0
 10
296.007830
 20
85.960020
 30
0.0
 10
295.893530
 20
86.048920
 30
0.0
 10
296.007830
 20
86.133620
 30
0.0
 10
296.685170
 20
86.133620
 30
0.0
 10
296.685170
 20
88.343420
 30
0.0
 10
296.189870
 20
88.343420
 30
0.0
 10
296.075570
 20
88.432320
 30
0.0
 10
296.189870
 20
88.517020
 30
0.0
  0
LWPOLYLINE
  5
245
100
AcDbEntity
  8
Calque_1
 62
7
100
AcDbPolyline
 90
15
 70
1
 10
299.312410
 20
87.784620
 30
0.0
 10
299.687060
 20
87.714770
 30
0.0
 10
299.998210
 20
87.505220
 30
0.0
 10
300.207760
 20
87.198303
 30
0.0
 10
300.277610
 20
86.827890
 30
0.0
 10
300.206703
 20
86.466995
 30
0.0
 10
299.993980
 20
86.163250
 30
0.0
 10
299.312410
 20
85.892320
 30
0.0
 10
298.626610
 20
86.167490
 30
0.0
 10
298.417060
 20
86.473345
 30
0.0
 10
298.347210
 20
86.840590
 30
0.0
 10
298.417060
 20
87.201478
 30
0.0
 10
298.626610
 20
87.505220
 30
0.0
 10
298.939875
 20
87.714770
 30
0.0
 10
299.312410
 20
87.784620
 30
0.0
  0
LWPOLYLINE
  5
246
100
AcDbEntity
  8
Calque_1
 62
7
100
AcDbPolyline
 90
9
 70
1
 10
299.312410
 20
87.611050
 30
0.0
 10
298.749380
 20
87.386690
 30
0.0
 10
298.520780
 20
86.840590
 30
0.0
 10
298.749380
 20
86.290250
 30
0.0
 10
299.312410
 20
86.065890
 30
0.0
 10
299.871210
 20
86.290250
 30
0.0
 10
300.104040
 20
86.827890
 30
0.0
 10
299.875440
 20
87.386690
 30
0.0
 10
299.312410
 20
87.611050
 30
0.0
  0
LWPOLYLINE
  5
247
100
AcDbEntity
  8
Calque_1
 62
7
100
AcDbPolyline
 90
25
 70
1
 10
302.447660
 20
85.960050
 30
0.0
 10
302.235990
 20
85.960050
 30
0.0
 10
301.850760
 20
87.056490
 30
0.0
 10
301.473990
 20
85.960050
 30
0.0
 10
301.258090
 20
85.960050
 30
0.0
 10
300.902490
 20
87.551790
 30
0.0
 10
300.822090
 20
87.551790
 30
0.0
 10
300.707790
 20
87.640690
 30
0.0
 10
300.822090
 20
87.725390
 30
0.0
 10
301.291990
 20
87.725390
 30
0.0
 10
301.406290
 20
87.640690
 30
0.0
 10
301.291990
 20
87.551790
 30
0.0
 10
301.067620
 20
87.551790
 30
0.0
 10
301.372420
 20
86.197120
 30
0.0
 10
301.736490
 20
87.276620
 30
0.0
 10
301.952390
 20
87.276620
 30
0.0
 10
302.329150
 20
86.197120
 30
0.0
 10
302.621250
 20
87.551790
 30
0.0
 10
302.409590
 20
87.551790
 30
0.0
 10
302.295290
 20
87.640690
 30
0.0
 10
302.409590
 20
87.725390
 30
0.0
 10
302.879490
 20
87.725390
 30
0.0
 10
302.993790
 20
87.640690
 30
0.0
 10
302.879490
 20
87.551790
 30
0.0
 10
302.799090
 20
87.551790
 30
0.0
  0
LWPOLYLINE
  5
248
100
AcDbEntity
  8
Calque_1
 62
7
100
AcDbPolyline
 90
32
 70
1
 10
314.647360
 20
87.179250
 30
0.0
 10
314.503430
 20
87.488290
 30
0.0
 10
314.126660
 20
87.611050
 30
0.0
 10
313.830330
 20
87.539050
 30
0.0
 10
313.542460
 20
87.268110
 30
0.0
 10
313.495860
 20
87.213110
 30
0.0
 10
313.495860
 20
86.133610
 30
0.0
 10
313.686360
 20
86.133610
 30
0.0
 10
313.804900
 20
86.048910
 30
0.0
 10
313.686360
 20
85.960010
 30
0.0
 10
313.127560
 20
85.960010
 30
0.0
 10
313.013260
 20
86.048910
 30
0.0
 10
313.127560
 20
86.133610
 30
0.0
 10
313.322300
 20
86.133610
 30
0.0
 10
313.322300
 20
88.343410
 30
0.0
 10
313.093700
 20
88.343410
 30
0.0
 10
312.979400
 20
88.432310
 30
0.0
 10
313.093700
 20
88.517010
 30
0.0
 10
313.495860
 20
88.517010
 30
0.0
 10
313.495860
 20
87.429040
 30
0.0
 10
313.804900
 20
87.704210
 30
0.0
 10
314.147800
 20
87.784610
 30
0.0
 10
314.630400
 20
87.615280
 30
0.0
 10
314.820900
 20
87.191940
 30
0.0
 10
314.820900
 20
86.133610
 30
0.0
 10
315.011400
 20
86.133610
 30
0.0
 10
315.129930
 20
86.048910
 30
0.0
 10
315.011400
 20
85.960010
 30
0.0
 10
314.456830
 20
85.960010
 30
0.0
 10
314.342530
 20
86.048910
 30
0.0
 10
314.456830
 20
86.133610
 30
0.0
 10
314.647330
 20
86.133610
 30
0.0
  0
LWPOLYLINE
  5
249
100
AcDbEntity
  8
Calque_1
 62
7
100
AcDbPolyline
 90
13
 70
1
 10
316.690400
 20
87.725350
 30
0.0
 10
316.690400
 20
86.133620
 30
0.0
 10
317.367740
 20
86.133620
 30
0.0
 10
317.486270
 20
86.048920
 30
0.0
 10
317.367740
 20
85.960020
 30
0.0
 10
315.839500
 20
85.960020
 30
0.0
 10
315.725200
 20
86.048920
 30
0.0
 10
315.839500
 20
86.133620
 30
0.0
 10
316.516840
 20
86.133620
 30
0.0
 10
316.516840
 20
87.551790
 30
0.0
 10
316.017300
 20
87.551790
 30
0.0
 10
315.903000
 20
87.640690
 30
0.0
 10
316.017300
 20
87.725390
 30
0.0
  0
LWPOLYLINE
  5
24a
100
AcDbEntity
  8
Calque_1
 62
7
100
AcDbPolyline
 90
4
 70
1
 10
316.682400
 20
88.601650
 30
0.0
 10
316.682400
 20
88.161390
 30
0.0
 10
316.432630
 20
88.161390
 30
0.0
 10
316.432630
 20
88.601650
 30
0.0
  0
LWPOLYLINE
  5
24b
100
AcDbEntity
  8
Calque_1
 62
7
100
AcDbPolyline
 90
24
 70
1
 10
319.736750
 20
87.373990
 30
0.0
 10
319.736750
 20
87.725350
 30
0.0
 10
320.138920
 20
87.725350
 30
0.0
 10
320.253220
 20
87.640650
 30
0.0
 10
320.138920
 20
87.551750
 30
0.0
 10
319.910320
 20
87.551750
 30
0.0
 10
319.910320
 20
85.841480
 30
0.0
 10
319.707120
 20
85.371580
 30
0.0
 10
319.211820
 20
85.172610
 30
0.0
 10
318.729220
 20
85.172610
 30
0.0
 10
318.614920
 20
85.261510
 30
0.0
 10
318.729220
 20
85.346210
 30
0.0
 10
319.220280
 20
85.346210
 30
0.0
 10
319.584350
 20
85.498610
 30
0.0
 10
319.736750
 20
85.866910
 30
0.0
 10
319.736750
 20
86.413010
 30
0.0
 10
319.416075
 20
86.105038
 30
0.0
 10
319.012850
 20
86.002380
 30
0.0
 10
318.394780
 20
86.264840
 30
0.0
 10
318.140780
 20
86.895610
 30
0.0
 10
318.394780
 20
87.522140
 30
0.0
 10
319.012850
 20
87.784610
 30
0.0
 10
319.418190
 20
87.681953
 30
0.0
 10
319.736750
 20
87.373980
 30
0.0
  0
LWPOLYLINE
  5
24c
100
AcDbEntity
  8
Calque_1
 62
7
100
AcDbPolyline
 90
9
 70
1
 10
319.025550
 20
87.611050
 30
0.0
 10
318.521780
 20
87.403620
 30
0.0
 10
318.314350
 20
86.895620
 30
0.0
 10
318.521780
 20
86.383390
 30
0.0
 10
319.025550
 20
86.175950
 30
0.0
 10
319.529320
 20
86.383390
 30
0.0
 10
319.736750
 20
86.887150
 30
0.0
 10
319.529320
 20
87.403620
 30
0.0
 10
319.025550
 20
87.611050
 30
0.0
  0
LWPOLYLINE
  5
24d
100
AcDbEntity
  8
Calque_1
 62
7
100
AcDbPolyline
 90
32
 70
1
 10
322.262400
 20
87.179250
 30
0.0
 10
322.118460
 20
87.488290
 30
0.0
 10
321.741700
 20
87.611050
 30
0.0
 10
321.445360
 20
87.539050
 30
0.0
 10
321.157500
 20
87.268110
 30
0.0
 10
321.110900
 20
87.213110
 30
0.0
 10
321.110900
 20
86.133610
 30
0.0
 10
321.301400
 20
86.133610
 30
0.0
 10
321.419930
 20
86.048910
 30
0.0
 10
321.301400
 20
85.960010
 30
0.0
 10
320.742600
 20
85.960010
 30
0.0
 10
320.628300
 20
86.048910
 30
0.0
 10
320.742600
 20
86.133610
 30
0.0
 10
320.937330
 20
86.133610
 30
0.0
 10
320.937330
 20
88.343410
 30
0.0
 10
320.708730
 20
88.343410
 30
0.0
 10
320.594430
 20
88.432310
 30
0.0
 10
320.708730
 20
88.517010
 30
0.0
 10
321.110900
 20
88.517010
 30
0.0
 10
321.110900
 20
87.429040
 30
0.0
 10
321.419930
 20
87.704210
 30
0.0
 10
321.762830
 20
87.784610
 30
0.0
 10
322.245430
 20
87.615280
 30
0.0
 10
322.435930
 20
87.191940
 30
0.0
 10
322.435930
 20
86.133610
 30
0.0
 10
322.626430
 20
86.133610
 30
0.0
 10
322.744970
 20
86.048910
 30
0.0
 10
322.626430
 20
85.960010
 30
0.0
 10
322.071870
 20
85.960010
 30
0.0
 10
321.957570
 20
86.048910
 30
0.0
 10
322.071870
 20
86.133610
 30
0.0
 10
322.262370
 20
86.133610
 30
0.0
  0
LWPOLYLINE
  5
24e
100
AcDbEntity
  8
Calque_1
 62
7
100
AcDbPolyline
 90
9
 70
1
 10
37.915688
 20
68.118100
 30
0.0
 10
38.372888
 20
67.931830
 30
0.0
 10
38.559154
 20
67.480270
 30
0.0
 10
38.370066
 20
67.037180
 30
0.0
 10
37.915688
 20
66.856560
 30
0.0
 10
37.458488
 20
67.040010
 30
0.0
 10
37.272221
 20
67.488740
 30
0.0
 10
37.458488
 20
67.931830
 30
0.0
 10
37.915688
 20
68.118100
 30
0.0
  0
LWPOLYLINE
  5
24f
100
AcDbEntity
  8
Calque_1
 62
7
100
AcDbPolyline
 90
9
 70
1
 10
37.915688
 20
68.002380
 30
0.0
 10
37.540332
 20
67.852810
 30
0.0
 10
37.387932
 20
67.488740
 30
0.0
 10
37.540332
 20
67.121850
 30
0.0
 10
37.915688
 20
66.972270
 30
0.0
 10
38.288221
 20
67.121850
 30
0.0
 10
38.443443
 20
67.480270
 30
0.0
 10
38.291043
 20
67.852810
 30
0.0
 10
37.915688
 20
68.002380
 30
0.0
  0
LWPOLYLINE
  5
250
100
AcDbEntity
  8
Calque_1
 62
7
100
AcDbPolyline
 90
26
 70
1
 10
40.271141
 20
67.150070
 30
0.0
 10
40.223161
 20
67.076670
 30
0.0
 10
40.096161
 20
66.980670
 30
0.0
 10
39.892961
 20
66.893170
 30
0.0
 10
39.633317
 20
66.856470
 30
0.0
 10
39.176117
 20
67.031450
 30
0.0
 10
38.998317
 20
67.477360
 30
0.0
 10
39.181761
 20
67.937380
 30
0.0
 10
39.647428
 20
68.118010
 30
0.0
 10
40.087694
 20
67.962780
 30
0.0
 10
40.087694
 20
67.999480
 30
0.0
 10
40.146964
 20
68.078480
 30
0.0
 10
40.203414
 20
67.999480
 30
0.0
 10
40.203414
 20
67.742660
 30
0.0
 10
40.146964
 20
67.666460
 30
0.0
 10
40.087694
 20
67.734160
 30
0.0
 10
39.946583
 20
67.923250
 30
0.0
 10
39.638961
 20
68.002250
 30
0.0
 10
39.257961
 20
67.855500
 30
0.0
 10
39.114028
 20
67.480140
 30
0.0
 10
39.260783
 20
67.113250
 30
0.0
 10
39.638961
 20
66.972140
 30
0.0
 10
40.166717
 20
67.175340
 30
0.0
 10
40.217517
 20
67.203540
 30
0.0
 10
40.254207
 20
67.186640
 30
0.0
 10
40.271137
 20
67.149940
 30
0.0
  0
LWPOLYLINE
  5
251
100
AcDbEntity
  8
Calque_1
 62
7
100
AcDbPolyline
 90
25
 70
1
 10
40.978416
 20
68.078580
 30
0.0
 10
41.599305
 20
68.078580
 30
0.0
 10
41.675505
 20
68.022180
 30
0.0
 10
41.599305
 20
67.962880
 30
0.0
 10
40.978416
 20
67.962880
 30
0.0
 10
40.978416
 20
67.209350
 30
0.0
 10
41.063086
 20
67.037190
 30
0.0
 10
41.294508
 20
66.972290
 30
0.0
 10
41.545686
 20
67.003290
 30
0.0
 10
41.762997
 20
67.085090
 30
0.0
 10
41.808157
 20
67.101990
 30
0.0
 10
41.844847
 20
67.085090
 30
0.0
 10
41.861777
 20
67.045590
 30
0.0
 10
41.669866
 20
66.918590
 30
0.0
 10
41.300155
 20
66.856490
 30
0.0
 10
40.981244
 20
66.949590
 30
0.0
 10
40.862710
 20
67.203590
 30
0.0
 10
40.862710
 20
67.962760
 30
0.0
 10
40.653866
 20
67.962760
 30
0.0
 10
40.574846
 20
68.022060
 30
0.0
 10
40.653866
 20
68.078460
 30
0.0
 10
40.862710
 20
68.078460
 30
0.0
 10
40.862710
 20
68.414310
 30
0.0
 10
40.921980
 20
68.490510
 30
0.0
 10
40.978420
 20
68.414310
 30
0.0
  0
LWPOLYLINE
  5
252
100
AcDbEntity
  8
Calque_1
 62
7
100
AcDbPolyline
 90
24
 70
1
 10
42.498491
 20
67.968520
 30
0.0
 10
42.690403
 20
68.072940
 30
0.0
 10
42.989558
 20
68.118140
 30
0.0
 10
43.314114
 20
68.019340
 30
0.0
 10
43.443936
 20
67.770980
 30
0.0
 10
43.443936
 20
67.017450
 30
0.0
 10
43.596336
 20
67.017450
 30
0.0
 10
43.672536
 20
66.961050
 30
0.0
 10
43.596336
 20
66.901750
 30
0.0
 10
43.328225
 20
66.901750
 30
0.0
 10
43.328225
 20
67.090840
 30
0.0
 10
42.789180
 20
66.856590
 30
0.0
 10
42.470269
 20
66.955390
 30
0.0
 10
42.348914
 20
67.217860
 30
0.0
 10
42.512603
 20
67.514190
 30
0.0
 10
42.944403
 20
67.629900
 30
0.0
 10
43.328225
 20
67.570600
 30
0.0
 10
43.328225
 20
67.770980
 30
0.0
 10
43.232265
 20
67.937490
 30
0.0
 10
42.981087
 20
68.002390
 30
0.0
 10
42.712976
 20
67.957290
 30
0.0
 10
42.552110
 20
67.912090
 30
0.0
 10
42.512600
 20
67.928990
 30
0.0
 10
42.498490
 20
67.968490
 30
0.0
  0
LWPOLYLINE
  5
253
100
AcDbEntity
  8
Calque_1
 62
7
100
AcDbPolyline
 90
9
 70
1
 10
43.328225
 20
67.217810
 30
0.0
 10
43.328225
 20
67.471810
 30
0.0
 10
42.966980
 20
67.514110
 30
0.0
 10
42.602914
 20
67.429410
 30
0.0
 10
42.464625
 20
67.214920
 30
0.0
 10
42.552115
 20
67.037120
 30
0.0
 10
42.786359
 20
66.972220
 30
0.0
 10
43.060115
 20
67.028620
 30
0.0
 10
43.328226
 20
67.217710
 30
0.0
  0
LWPOLYLINE
  5
254
100
AcDbEntity
  8
Calque_1
 62
7
100
AcDbPolyline
 90
20
 70
1
 10
44.786212
 20
66.901720
 30
0.0
 10
44.588656
 20
66.901720
 30
0.0
 10
44.114523
 20
67.962870
 30
0.0
 10
43.998812
 20
67.962870
 30
0.0
 10
43.922612
 20
68.022170
 30
0.0
 10
43.998812
 20
68.078570
 30
0.0
 10
44.424967
 20
68.078570
 30
0.0
 10
44.503987
 20
68.022170
 30
0.0
 10
44.424967
 20
67.962870
 30
0.0
 10
44.241523
 20
67.962870
 30
0.0
 10
44.664856
 20
67.017430
 30
0.0
 10
44.718476
 20
67.017430
 30
0.0
 10
45.133343
 20
67.962870
 30
0.0
 10
44.941432
 20
67.962870
 30
0.0
 10
44.865232
 20
68.022170
 30
0.0
 10
44.941432
 20
68.078570
 30
0.0
 10
45.370410
 20
68.078570
 30
0.0
 10
45.446610
 20
68.022170
 30
0.0
 10
45.370410
 20
67.962870
 30
0.0
 10
45.254700
 20
67.962870
 30
0.0
  0
LWPOLYLINE
  5
255
100
AcDbEntity
  8
Calque_1
 62
7
100
AcDbPolyline
 90
17
 70
1
 10
46.997732
 20
67.463340
 30
0.0
 10
45.823687
 20
67.463340
 30
0.0
 10
46.009954
 20
67.104920
 30
0.0
 10
46.393776
 20
66.972270
 30
0.0
 10
46.664709
 20
67.014570
 30
0.0
 10
46.887665
 20
67.124630
 30
0.0
 10
46.932825
 20
67.144430
 30
0.0
 10
46.969515
 20
67.127530
 30
0.0
 10
46.986445
 20
67.088030
 30
0.0
 10
46.783245
 20
66.935630
 30
0.0
 10
46.390956
 20
66.856630
 30
0.0
 10
45.905534
 20
67.048540
 30
0.0
 10
45.707978
 20
67.514210
 30
0.0
 10
45.894245
 20
67.943190
 30
0.0
 10
46.351445
 20
68.118170
 30
0.0
 10
46.817111
 20
67.937540
 30
0.0
 10
46.997734
 20
67.463410
 30
0.0
  0
LWPOLYLINE
  5
256
100
AcDbEntity
  8
Calque_1
 62
7
100
AcDbPolyline
 90
6
 70
1
 10
45.823687
 20
67.579050
 30
0.0
 10
46.879198
 20
67.579050
 30
0.0
 10
46.701398
 20
67.886670
 30
0.0
 10
46.351443
 20
68.002380
 30
0.0
 10
46.004309
 20
67.886670
 30
0.0
 10
45.823687
 20
67.579050
 30
0.0
  0
LWPOLYLINE
  5
257
100
AcDbEntity
  8
Calque_1
 62
7
100
AcDbPolyline
 90
17
 70
1
 10
447.752960
 20
117.114180
 30
0.0
 10
448.252495
 20
117.021048
 30
0.0
 10
448.667360
 20
116.741650
 30
0.0
 10
448.946758
 20
116.332428
 30
0.0
 10
449.039890
 20
115.838540
 30
0.0
 10
448.945348
 20
115.357350
 30
0.0
 10
448.661720
 20
114.952360
 30
0.0
 10
448.245440
 20
114.681430
 30
0.0
 10
447.752960
 20
114.591120
 30
0.0
 10
447.256250
 20
114.682840
 30
0.0
 10
446.838560
 20
114.958000
 30
0.0
 10
446.559163
 20
115.365813
 30
0.0
 10
446.466030
 20
115.855470
 30
0.0
 10
446.559163
 20
116.336660
 30
0.0
 10
446.838560
 20
116.741650
 30
0.0
 10
447.256250
 20
117.021048
 30
0.0
 10
447.752960
 20
117.114180
 30
0.0
  0
LWPOLYLINE
  5
258
100
AcDbEntity
  8
Calque_1
 62
7
100
AcDbPolyline
 90
17
 70
1
 10
447.752960
 20
116.882760
 30
0.0
 10
447.345148
 20
116.807970
 30
0.0
 10
447.002250
 20
116.583600
 30
0.0
 10
446.773650
 20
116.251993
 30
0.0
 10
446.697450
 20
115.855470
 30
0.0
 10
446.773650
 20
115.457535
 30
0.0
 10
447.002250
 20
115.121690
 30
0.0
 10
447.345148
 20
114.897328
 30
0.0
 10
447.752960
 20
114.822540
 30
0.0
 10
448.156538
 20
114.897328
 30
0.0
 10
448.498030
 20
115.121690
 30
0.0
 10
448.730860
 20
115.450483
 30
0.0
 10
448.808470
 20
115.838540
 30
0.0
 10
448.732270
 20
116.247760
 30
0.0
 10
448.503670
 20
116.583600
 30
0.0
 10
448.163593
 20
116.807970
 30
0.0
 10
447.752960
 20
116.882760
 30
0.0
  0
LWPOLYLINE
  5
259
100
AcDbEntity
  8
Calque_1
 62
7
100
AcDbPolyline
 90
25
 70
1
 10
451.922000
 20
114.681430
 30
0.0
 10
451.922000
 20
115.053960
 30
0.0
 10
451.428113
 20
114.706830
 30
0.0
 10
450.894710
 20
114.591120
 30
0.0
 10
450.347200
 20
114.794320
 30
0.0
 10
450.144000
 20
115.330540
 30
0.0
 10
450.144000
 20
116.803740
 30
0.0
 10
449.839200
 20
116.803740
 30
0.0
 10
449.686800
 20
116.922270
 30
0.0
 10
449.839200
 20
117.035160
 30
0.0
 10
450.375420
 20
117.035160
 30
0.0
 10
450.375420
 20
115.330540
 30
0.0
 10
450.522180
 20
114.969290
 30
0.0
 10
450.889070
 20
114.822540
 30
0.0
 10
451.429523
 20
114.949540
 30
0.0
 10
451.922000
 20
115.330540
 30
0.0
 10
451.922000
 20
116.803740
 30
0.0
 10
451.504310
 20
116.803740
 30
0.0
 10
451.346270
 20
116.922270
 30
0.0
 10
451.504310
 20
117.035160
 30
0.0
 10
452.153420
 20
117.035160
 30
0.0
 10
452.153420
 20
114.912850
 30
0.0
 10
452.345330
 20
114.912850
 30
0.0
 10
452.497730
 20
114.799960
 30
0.0
 10
452.345330
 20
114.681430
 30
0.0
  0
LWPOLYLINE
  5
25a
100
AcDbEntity
  8
Calque_1
 62
7
100
AcDbPolyline
 90
25
 70
1
 10
453.878420
 20
117.035160
 30
0.0
 10
455.120200
 20
117.035160
 30
0.0
 10
455.272600
 20
116.922270
 30
0.0
 10
455.120200
 20
116.803740
 30
0.0
 10
453.878420
 20
116.803740
 30
0.0
 10
453.878420
 20
115.296670
 30
0.0
 10
454.047750
 20
114.952360
 30
0.0
 10
454.510600
 20
114.822540
 30
0.0
 10
455.012950
 20
114.884640
 30
0.0
 10
455.447570
 20
115.048330
 30
0.0
 10
455.537870
 20
115.082230
 30
0.0
 10
455.611270
 20
115.048330
 30
0.0
 10
455.645170
 20
114.969330
 30
0.0
 10
455.261350
 20
114.715330
 30
0.0
 10
454.521920
 20
114.591160
 30
0.0
 10
453.884100
 20
114.777420
 30
0.0
 10
453.647040
 20
115.285420
 30
0.0
 10
453.647040
 20
116.803780
 30
0.0
 10
453.229350
 20
116.803780
 30
0.0
 10
453.071300
 20
116.922310
 30
0.0
 10
453.229350
 20
117.035200
 30
0.0
 10
453.647040
 20
117.035200
 30
0.0
 10
453.647040
 20
117.706890
 30
0.0
 10
453.765570
 20
117.859290
 30
0.0
 10
453.878460
 20
117.706890
 30
0.0
  0
LWPOLYLINE
  5
25b
100
AcDbEntity
  8
Calque_1
 62
7
100
AcDbPolyline
 90
26
 70
1
 10
457.025810
 20
117.035160
 30
0.0
 10
457.025810
 20
116.572320
 30
0.0
 10
457.483010
 20
116.990000
 30
0.0
 10
458.036170
 20
117.114180
 30
0.0
 10
458.517358
 20
117.028103
 30
0.0
 10
458.911060
 20
116.769870
 30
0.0
 10
459.177760
 20
116.390280
 30
0.0
 10
459.266660
 20
115.928850
 30
0.0
 10
459.177760
 20
115.466003
 30
0.0
 10
458.911060
 20
115.082180
 30
0.0
 10
458.514538
 20
114.823948
 30
0.0
 10
458.036170
 20
114.737870
 30
0.0
 10
457.467490
 20
114.873338
 30
0.0
 10
457.025810
 20
115.279740
 30
0.0
 10
457.025810
 20
113.862980
 30
0.0
 10
457.578970
 20
113.862980
 30
0.0
 10
457.731370
 20
113.750090
 30
0.0
 10
457.578970
 20
113.631560
 30
0.0
 10
456.489590
 20
113.631560
 30
0.0
 10
456.337190
 20
113.750090
 30
0.0
 10
456.489590
 20
113.862980
 30
0.0
 10
456.794390
 20
113.862980
 30
0.0
 10
456.794390
 20
116.803740
 30
0.0
 10
456.489590
 20
116.803740
 30
0.0
 10
456.337190
 20
116.922270
 30
0.0
 10
456.489590
 20
117.035160
 30
0.0
  0
LWPOLYLINE
  5
25c
100
AcDbEntity
  8
Calque_1
 62
7
100
AcDbPolyline
 90
17
 70
1
 10
458.030520
 20
116.882760
 30
0.0
 10
457.643875
 20
116.812205
 30
0.0
 10
457.319320
 20
116.600540
 30
0.0
 10
457.099188
 20
116.294328
 30
0.0
 10
457.025810
 20
115.928850
 30
0.0
 10
457.099188
 20
115.557725
 30
0.0
 10
457.319320
 20
115.245870
 30
0.0
 10
457.643875
 20
115.038435
 30
0.0
 10
458.030520
 20
114.969290
 30
0.0
 10
458.417165
 20
115.038435
 30
0.0
 10
458.741720
 20
115.245870
 30
0.0
 10
458.961853
 20
115.552083
 30
0.0
 10
459.035230
 20
115.917560
 30
0.0
 10
458.963265
 20
116.295735
 30
0.0
 10
458.747370
 20
116.606180
 30
0.0
 10
458.424223
 20
116.813615
 30
0.0
 10
458.030520
 20
116.882760
 30
0.0
  0
LWPOLYLINE
  5
25d
100
AcDbEntity
  8
Calque_1
 62
7
100
AcDbPolyline
 90
25
 70
1
 10
462.075390
 20
114.681430
 30
0.0
 10
462.075390
 20
115.053960
 30
0.0
 10
461.581498
 20
114.706830
 30
0.0
 10
461.048100
 20
114.591120
 30
0.0
 10
460.500590
 20
114.794320
 30
0.0
 10
460.297390
 20
115.330540
 30
0.0
 10
460.297390
 20
116.803740
 30
0.0
 10
459.992590
 20
116.803740
 30
0.0
 10
459.840190
 20
116.922270
 30
0.0
 10
459.992590
 20
117.035160
 30
0.0
 10
460.528810
 20
117.035160
 30
0.0
 10
460.528810
 20
115.330540
 30
0.0
 10
460.675560
 20
114.969290
 30
0.0
 10
461.042450
 20
114.822540
 30
0.0
 10
461.582910
 20
114.949540
 30
0.0
 10
462.075390
 20
115.330540
 30
0.0
 10
462.075390
 20
116.803740
 30
0.0
 10
461.657700
 20
116.803740
 30
0.0
 10
461.499650
 20
116.922270
 30
0.0
 10
461.657700
 20
117.035160
 30
0.0
 10
462.306810
 20
117.035160
 30
0.0
 10
462.306810
 20
114.912850
 30
0.0
 10
462.498720
 20
114.912850
 30
0.0
 10
462.651120
 20
114.799960
 30
0.0
 10
462.498720
 20
114.681430
 30
0.0
  0
LWPOLYLINE
  5
25e
100
AcDbEntity
  8
Calque_1
 62
7
100
AcDbPolyline
 90
25
 70
1
 10
464.031800
 20
117.035160
 30
0.0
 10
465.273580
 20
117.035160
 30
0.0
 10
465.425980
 20
116.922270
 30
0.0
 10
465.273580
 20
116.803740
 30
0.0
 10
464.031800
 20
116.803740
 30
0.0
 10
464.031800
 20
115.296670
 30
0.0
 10
464.201140
 20
114.952360
 30
0.0
 10
464.663980
 20
114.822540
 30
0.0
 10
465.166340
 20
114.884640
 30
0.0
 10
465.600960
 20
115.048330
 30
0.0
 10
465.691260
 20
115.082230
 30
0.0
 10
465.764660
 20
115.048330
 30
0.0
 10
465.798560
 20
114.969330
 30
0.0
 10
465.414740
 20
114.715330
 30
0.0
 10
464.675320
 20
114.591160
 30
0.0
 10
464.037500
 20
114.777420
 30
0.0
 10
463.800430
 20
115.285420
 30
0.0
 10
463.800430
 20
116.803780
 30
0.0
 10
463.382740
 20
116.803780
 30
0.0
 10
463.224700
 20
116.922310
 30
0.0
 10
463.382740
 20
117.035200
 30
0.0
 10
463.800430
 20
117.035200
 30
0.0
 10
463.800430
 20
117.706890
 30
0.0
 10
463.918960
 20
117.859290
 30
0.0
 10
464.031850
 20
117.706890
 30
0.0
  0
LWPOLYLINE
  5
25f
100
AcDbEntity
  8
Calque_1
 62
7
100
AcDbPolyline
 90
42
 70
1
 10
232.437690
 20
117.035160
 30
0.0
 10
232.437690
 20
116.741650
 30
0.0
 10
232.714260
 20
117.029520
 30
0.0
 10
233.030350
 20
117.114220
 30
0.0
 10
233.347853
 20
117.014033
 30
0.0
 10
233.577860
 20
116.713470
 30
0.0
 10
233.892543
 20
117.014033
 30
0.0
 10
234.215690
 20
117.114220
 30
0.0
 10
234.633370
 20
116.933600
 30
0.0
 10
234.808350
 20
116.504620
 30
0.0
 10
234.808350
 20
114.912890
 30
0.0
 10
235.000260
 20
114.912890
 30
0.0
 10
235.152660
 20
114.800000
 30
0.0
 10
235.000260
 20
114.681470
 30
0.0
 10
234.582570
 20
114.681470
 30
0.0
 10
234.582570
 20
116.482000
 30
0.0
 10
234.469690
 20
116.758580
 30
0.0
 10
234.210040
 20
116.882760
 30
0.0
 10
233.922175
 20
116.767050
 30
0.0
 10
233.623020
 20
116.419920
 30
0.0
 10
233.623020
 20
114.912850
 30
0.0
 10
233.814930
 20
114.912850
 30
0.0
 10
233.967330
 20
114.799960
 30
0.0
 10
233.814930
 20
114.681430
 30
0.0
 10
233.397240
 20
114.681430
 30
0.0
 10
233.397240
 20
116.465070
 30
0.0
 10
233.284350
 20
116.752940
 30
0.0
 10
233.030350
 20
116.882760
 30
0.0
 10
232.741075
 20
116.767050
 30
0.0
 10
232.437690
 20
116.419920
 30
0.0
 10
232.437690
 20
114.912850
 30
0.0
 10
232.629600
 20
114.912850
 30
0.0
 10
232.782000
 20
114.799960
 30
0.0
 10
232.629600
 20
114.681430
 30
0.0
 10
232.014350
 20
114.681430
 30
0.0
 10
231.867600
 20
114.799960
 30
0.0
 10
232.020000
 20
114.912850
 30
0.0
 10
232.211910
 20
114.912850
 30
0.0
 10
232.211910
 20
116.803740
 30
0.0
 10
232.020000
 20
116.803740
 30
0.0
 10
231.867600
 20
116.922270
 30
0.0
 10
232.020000
 20
117.035160
 30
0.0
  0
LWPOLYLINE
  5
260
100
AcDbEntity
  8
Calque_1
 62
7
100
AcDbPolyline
 90
13
 70
1
 10
236.996190
 20
117.035160
 30
0.0
 10
236.996190
 20
114.912850
 30
0.0
 10
237.899300
 20
114.912850
 30
0.0
 10
238.057350
 20
114.799960
 30
0.0
 10
237.899300
 20
114.681430
 30
0.0
 10
235.861660
 20
114.681430
 30
0.0
 10
235.709260
 20
114.799960
 30
0.0
 10
235.861660
 20
114.912850
 30
0.0
 10
236.764770
 20
114.912850
 30
0.0
 10
236.764770
 20
116.803740
 30
0.0
 10
236.098730
 20
116.803740
 30
0.0
 10
235.946330
 20
116.922270
 30
0.0
 10
236.098730
 20
117.035160
 30
0.0
  0
LWPOLYLINE
  5
261
100
AcDbEntity
  8
Calque_1
 62
7
100
AcDbPolyline
 90
4
 70
1
 10
236.984890
 20
118.203560
 30
0.0
 10
236.984890
 20
117.616540
 30
0.0
 10
236.651870
 20
117.616540
 30
0.0
 10
236.651870
 20
118.203560
 30
0.0
  0
LWPOLYLINE
  5
262
100
AcDbEntity
  8
Calque_1
 62
7
100
AcDbPolyline
 90
36
 70
1
 10
240.431450
 20
115.917560
 30
0.0
 10
241.470030
 20
114.912850
 30
0.0
 10
241.520830
 20
114.912850
 30
0.0
 10
241.673230
 20
114.799960
 30
0.0
 10
241.520830
 20
114.681430
 30
0.0
 10
240.775770
 20
114.681430
 30
0.0
 10
240.623370
 20
114.799960
 30
0.0
 10
240.775770
 20
114.912850
 30
0.0
 10
241.142650
 20
114.912850
 30
0.0
 10
240.267770
 20
115.753870
 30
0.0
 10
239.381590
 20
114.912850
 30
0.0
 10
239.765410
 20
114.912850
 30
0.0
 10
239.917810
 20
114.799960
 30
0.0
 10
239.765410
 20
114.681430
 30
0.0
 10
239.014700
 20
114.681430
 30
0.0
 10
238.862300
 20
114.799960
 30
0.0
 10
239.014700
 20
114.912850
 30
0.0
 10
239.065500
 20
114.912850
 30
0.0
 10
240.104080
 20
115.917560
 30
0.0
 10
239.184030
 20
116.803740
 30
0.0
 10
239.144530
 20
116.803740
 30
0.0
 10
238.992130
 20
116.922270
 30
0.0
 10
239.144530
 20
117.035160
 30
0.0
 10
239.771060
 20
117.035160
 30
0.0
 10
239.923460
 20
116.922270
 30
0.0
 10
239.771060
 20
116.803740
 30
0.0
 10
239.511420
 20
116.803740
 30
0.0
 10
240.267780
 20
116.069960
 30
0.0
 10
241.041060
 20
116.803740
 30
0.0
 10
240.770130
 20
116.803740
 30
0.0
 10
240.617730
 20
116.922270
 30
0.0
 10
240.770130
 20
117.035160
 30
0.0
 10
241.391020
 20
117.035160
 30
0.0
 10
241.543420
 20
116.922270
 30
0.0
 10
241.391020
 20
116.803740
 30
0.0
 10
241.351520
 20
116.803740
 30
0.0
  0
LWPOLYLINE
  5
263
100
AcDbEntity
  8
Calque_1
 62
7
100
AcDbPolyline
 90
24
 70
1
 10
244.894000
 20
115.804670
 30
0.0
 10
242.545920
 20
115.804670
 30
0.0
 10
242.670103
 20
115.402505
 30
0.0
 10
242.918450
 20
115.087830
 30
0.0
 10
243.686090
 20
114.822540
 30
0.0
 10
244.227960
 20
114.907240
 30
0.0
 10
244.673870
 20
115.127380
 30
0.0
 10
244.764170
 20
115.166880
 30
0.0
 10
244.837570
 20
115.132980
 30
0.0
 10
244.871470
 20
115.053980
 30
0.0
 10
244.465070
 20
114.749180
 30
0.0
 10
243.680490
 20
114.591140
 30
0.0
 10
243.152733
 20
114.687095
 30
0.0
 10
242.709640
 20
114.974960
 30
0.0
 10
242.413308
 20
115.399703
 30
0.0
 10
242.314530
 20
115.906290
 30
0.0
 10
242.407665
 20
116.377605
 30
0.0
 10
242.687070
 20
116.764250
 30
0.0
 10
243.101935
 20
117.026713
 30
0.0
 10
243.601470
 20
117.114200
 30
0.0
 10
244.119348
 20
117.023890
 30
0.0
 10
244.532800
 20
116.752960
 30
0.0
 10
244.803730
 20
116.338093
 30
0.0
 10
244.894040
 20
115.804690
 30
0.0
  0
LWPOLYLINE
  5
264
100
AcDbEntity
  8
Calque_1
 62
7
100
AcDbPolyline
 90
6
 70
1
 10
242.545920
 20
116.036090
 30
0.0
 10
244.656940
 20
116.036090
 30
0.0
 10
244.301340
 20
116.651340
 30
0.0
 10
243.601430
 20
116.882760
 30
0.0
 10
242.907160
 20
116.651340
 30
0.0
 10
242.545920
 20
116.036090
 30
0.0
  0
LWPOLYLINE
  5
265
100
AcDbEntity
  8
Calque_1
 62
7
100
AcDbPolyline
 90
25
 70
1
 10
248.278470
 20
116.623120
 30
0.0
 10
248.103490
 20
116.741650
 30
0.0
 10
247.815620
 20
116.860180
 30
0.0
 10
247.414870
 20
116.724720
 30
0.0
 10
246.743180
 20
116.160270
 30
0.0
 10
246.743180
 20
114.912850
 30
0.0
 10
247.753530
 20
114.912850
 30
0.0
 10
247.905930
 20
114.794320
 30
0.0
 10
247.753530
 20
114.681430
 30
0.0
 10
245.969890
 20
114.681430
 30
0.0
 10
245.817490
 20
114.799960
 30
0.0
 10
245.969890
 20
114.912850
 30
0.0
 10
246.511760
 20
114.912850
 30
0.0
 10
246.511760
 20
116.803740
 30
0.0
 10
246.088420
 20
116.803740
 30
0.0
 10
245.936020
 20
116.922270
 30
0.0
 10
246.088420
 20
117.035160
 30
0.0
 10
246.743180
 20
117.035160
 30
0.0
 10
246.743180
 20
116.459430
 30
0.0
 10
247.375360
 20
116.950490
 30
0.0
 10
247.832560
 20
117.091600
 30
0.0
 10
248.227670
 20
116.956140
 30
0.0
 10
248.397000
 20
116.741650
 30
0.0
 10
248.363100
 20
116.656950
 30
0.0
 10
248.278400
 20
116.623050
 30
0.0
  0
LWPOLYLINE
  5
266
100
AcDbEntity
  8
Calque_1
 62
7
100
AcDbPolyline
 90
17
 70
1
 10
119.297470
 20
117.114180
 30
0.0
 10
119.797000
 20
117.021048
 30
0.0
 10
120.211870
 20
116.741650
 30
0.0
 10
120.491268
 20
116.332428
 30
0.0
 10
120.584400
 20
115.838540
 30
0.0
 10
120.489855
 20
115.357350
 30
0.0
 10
120.206220
 20
114.952360
 30
0.0
 10
119.789943
 20
114.681430
 30
0.0
 10
119.297470
 20
114.591120
 30
0.0
 10
118.800755
 20
114.682840
 30
0.0
 10
118.383070
 20
114.958000
 30
0.0
 10
118.103665
 20
115.365813
 30
0.0
 10
118.010530
 20
115.855470
 30
0.0
 10
118.103665
 20
116.336660
 30
0.0
 10
118.383070
 20
116.741650
 30
0.0
 10
118.800755
 20
117.021048
 30
0.0
 10
119.297470
 20
117.114180
 30
0.0
  0
LWPOLYLINE
  5
267
100
AcDbEntity
  8
Calque_1
 62
7
100
AcDbPolyline
 90
17
 70
1
 10
119.297470
 20
116.882760
 30
0.0
 10
118.889658
 20
116.807970
 30
0.0
 10
118.546760
 20
116.583600
 30
0.0
 10
118.318160
 20
116.251993
 30
0.0
 10
118.241960
 20
115.855470
 30
0.0
 10
118.318160
 20
115.457535
 30
0.0
 10
118.546760
 20
115.121690
 30
0.0
 10
118.889658
 20
114.897328
 30
0.0
 10
119.297470
 20
114.822540
 30
0.0
 10
119.701045
 20
114.897328
 30
0.0
 10
120.042530
 20
115.121690
 30
0.0
 10
120.275368
 20
115.450483
 30
0.0
 10
120.352980
 20
115.838540
 30
0.0
 10
120.276780
 20
116.247760
 30
0.0
 10
120.048180
 20
116.583600
 30
0.0
 10
119.708103
 20
116.807970
 30
0.0
 10
119.297470
 20
116.882760
 30
0.0
  0
LWPOLYLINE
  5
268
100
AcDbEntity
  8
Calque_1
 62
7
100
AcDbPolyline
 90
41
 70
1
 10
123.539880
 20
115.341830
 30
0.0
 10
123.347970
 20
115.663560
 30
0.0
 10
122.885130
 20
115.815960
 30
0.0
 10
122.343260
 20
115.900660
 30
0.0
 10
121.880420
 20
116.086920
 30
0.0
 10
121.688510
 20
116.476390
 30
0.0
 10
121.959440
 20
116.933590
 30
0.0
 10
122.653710
 20
117.114210
 30
0.0
 10
123.086918
 20
117.049300
 30
0.0
 10
123.427000
 20
116.854570
 30
0.0
 10
123.427000
 20
116.877170
 30
0.0
 10
123.545530
 20
117.035210
 30
0.0
 10
123.658420
 20
116.877170
 30
0.0
 10
123.658420
 20
116.487700
 30
0.0
 10
123.545530
 20
116.335300
 30
0.0
 10
123.427000
 20
116.465120
 30
0.0
 10
123.201220
 20
116.769920
 30
0.0
 10
122.676280
 20
116.882810
 30
0.0
 10
122.151350
 20
116.758630
 30
0.0
 10
121.942510
 20
116.459480
 30
0.0
 10
122.134420
 20
116.199830
 30
0.0
 10
122.597260
 20
116.070010
 30
0.0
 10
123.139130
 20
115.979710
 30
0.0
 10
123.601970
 20
115.765220
 30
0.0
 10
123.793880
 20
115.336240
 30
0.0
 10
123.714860
 20
115.041320
 30
0.0
 10
123.477800
 20
114.800020
 30
0.0
 10
122.687570
 20
114.591180
 30
0.0
 10
122.195098
 20
114.667380
 30
0.0
 10
121.801400
 20
114.895980
 30
0.0
 10
121.801400
 20
114.833880
 30
0.0
 10
121.688510
 20
114.681480
 30
0.0
 10
121.569970
 20
114.833880
 30
0.0
 10
121.569970
 20
115.302370
 30
0.0
 10
121.688510
 20
115.454770
 30
0.0
 10
121.801400
 20
115.330590
 30
0.0
 10
121.801400
 20
115.291090
 30
0.0
 10
122.055400
 20
114.958060
 30
0.0
 10
122.670640
 20
114.822600
 30
0.0
 10
123.291530
 20
114.969350
 30
0.0
 10
123.539880
 20
115.341890
 30
0.0
  0
LWPOLYLINE
  5
269
100
AcDbEntity
  8
Calque_1
 62
7
100
AcDbPolyline
 90
36
 70
1
 10
127.392840
 20
115.178140
 30
0.0
 10
127.296840
 20
115.031380
 30
0.0
 10
127.042840
 20
114.839470
 30
0.0
 10
126.636440
 20
114.664490
 30
0.0
 10
126.117150
 20
114.591090
 30
0.0
 10
125.611975
 20
114.678578
 30
0.0
 10
125.202750
 20
114.941040
 30
0.0
 10
124.936050
 20
115.338975
 30
0.0
 10
124.847150
 20
115.832860
 30
0.0
 10
124.938873
 20
116.342273
 30
0.0
 10
125.214040
 20
116.752910
 30
0.0
 10
125.630318
 20
117.023840
 30
0.0
 10
126.145370
 20
117.114150
 30
0.0
 10
126.627975
 20
117.036540
 30
0.0
 10
127.025910
 20
116.803710
 30
0.0
 10
127.025910
 20
116.877110
 30
0.0
 10
127.144440
 20
117.035150
 30
0.0
 10
127.257330
 20
116.877110
 30
0.0
 10
127.257330
 20
116.363460
 30
0.0
 10
127.144440
 20
116.211060
 30
0.0
 10
127.025910
 20
116.346530
 30
0.0
 10
126.743680
 20
116.724710
 30
0.0
 10
126.128440
 20
116.882750
 30
0.0
 10
125.703695
 20
116.809373
 30
0.0
 10
125.366440
 20
116.589240
 30
0.0
 10
125.150538
 20
116.257628
 30
0.0
 10
125.078570
 20
115.838530
 30
0.0
 10
125.151948
 20
115.432130
 30
0.0
 10
125.372080
 20
115.104750
 30
0.0
 10
125.707930
 20
114.893085
 30
0.0
 10
126.128440
 20
114.822530
 30
0.0
 10
126.699938
 20
114.924130
 30
0.0
 10
127.183950
 20
115.228930
 30
0.0
 10
127.285550
 20
115.285330
 30
0.0
 10
127.358950
 20
115.251430
 30
0.0
 10
127.392850
 20
115.178030
 30
0.0
  0
LWPOLYLINE
  5
26a
100
AcDbEntity
  8
Calque_1
 62
7
100
AcDbPolyline
 90
13
 70
1
 10
129.563740
 20
117.035160
 30
0.0
 10
129.563740
 20
114.912850
 30
0.0
 10
130.466850
 20
114.912850
 30
0.0
 10
130.624900
 20
114.799960
 30
0.0
 10
130.466850
 20
114.681430
 30
0.0
 10
128.429210
 20
114.681430
 30
0.0
 10
128.276810
 20
114.799960
 30
0.0
 10
128.429210
 20
114.912850
 30
0.0
 10
129.332320
 20
114.912850
 30
0.0
 10
129.332320
 20
116.803740
 30
0.0
 10
128.666270
 20
116.803740
 30
0.0
 10
128.513870
 20
116.922270
 30
0.0
 10
128.666270
 20
117.035160
 30
0.0
  0
LWPOLYLINE
  5
26b
100
AcDbEntity
  8
Calque_1
 62
7
100
AcDbPolyline
 90
4
 70
1
 10
129.552440
 20
118.203560
 30
0.0
 10
129.552440
 20
117.616540
 30
0.0
 10
129.219420
 20
117.616540
 30
0.0
 10
129.219420
 20
118.203560
 30
0.0
  0
LWPOLYLINE
  5
26c
100
AcDbEntity
  8
Calque_1
 62
7
100
AcDbPolyline
 90
13
 70
1
 10
132.948200
 20
118.090670
 30
0.0
 10
132.948200
 20
114.912850
 30
0.0
 10
133.851310
 20
114.912850
 30
0.0
 10
134.009360
 20
114.799960
 30
0.0
 10
133.851310
 20
114.681430
 30
0.0
 10
131.813670
 20
114.681430
 30
0.0
 10
131.661270
 20
114.799960
 30
0.0
 10
131.813670
 20
114.912850
 30
0.0
 10
132.716780
 20
114.912850
 30
0.0
 10
132.716780
 20
117.859250
 30
0.0
 10
132.056380
 20
117.859250
 30
0.0
 10
131.903980
 20
117.977780
 30
0.0
 10
132.056380
 20
118.090670
 30
0.0
  0
LWPOLYLINE
  5
26d
100
AcDbEntity
  8
Calque_1
 62
7
100
AcDbPolyline
 90
13
 70
1
 10
136.332670
 20
118.090670
 30
0.0
 10
136.332670
 20
114.912850
 30
0.0
 10
137.235780
 20
114.912850
 30
0.0
 10
137.393820
 20
114.799960
 30
0.0
 10
137.235780
 20
114.681430
 30
0.0
 10
135.198130
 20
114.681430
 30
0.0
 10
135.045730
 20
114.799960
 30
0.0
 10
135.198130
 20
114.912850
 30
0.0
 10
136.101240
 20
114.912850
 30
0.0
 10
136.101240
 20
117.859250
 30
0.0
 10
135.440840
 20
117.859250
 30
0.0
 10
135.288440
 20
117.977780
 30
0.0
 10
135.440840
 20
118.090670
 30
0.0
  0
LWPOLYLINE
  5
26e
100
AcDbEntity
  8
Calque_1
 62
7
100
AcDbPolyline
 90
26
 70
1
 10
138.616460
 20
116.815030
 30
0.0
 10
139.000280
 20
117.023870
 30
0.0
 10
139.598590
 20
117.114170
 30
0.0
 10
140.247700
 20
116.916620
 30
0.0
 10
140.507350
 20
116.419910
 30
0.0
 10
140.507350
 20
114.912840
 30
0.0
 10
140.812150
 20
114.912840
 30
0.0
 10
140.964550
 20
114.799950
 30
0.0
 10
140.812150
 20
114.681420
 30
0.0
 10
140.275930
 20
114.681420
 30
0.0
 10
140.275930
 20
115.059590
 30
0.0
 10
139.755228
 20
114.708230
 30
0.0
 10
139.197840
 20
114.591110
 30
0.0
 10
138.560020
 20
114.788660
 30
0.0
 10
138.317300
 20
115.313590
 30
0.0
 10
138.399145
 20
115.645203
 30
0.0
 10
138.644680
 20
115.906260
 30
0.0
 10
139.508280
 20
116.137680
 30
0.0
 10
140.275930
 20
116.019150
 30
0.0
 10
140.275930
 20
116.419910
 30
0.0
 10
140.084020
 20
116.752930
 30
0.0
 10
139.581660
 20
116.882750
 30
0.0
 10
139.045440
 20
116.792450
 30
0.0
 10
138.723700
 20
116.702150
 30
0.0
 10
138.644700
 20
116.736050
 30
0.0
 10
138.616500
 20
116.815050
 30
0.0
  0
LWPOLYLINE
  5
26f
100
AcDbEntity
  8
Calque_1
 62
7
100
AcDbPolyline
 90
9
 70
1
 10
140.275930
 20
115.313600
 30
0.0
 10
140.275930
 20
115.821600
 30
0.0
 10
139.553440
 20
115.906300
 30
0.0
 10
138.825300
 20
115.736970
 30
0.0
 10
138.548730
 20
115.307990
 30
0.0
 10
138.723700
 20
114.952390
 30
0.0
 10
139.192190
 20
114.822570
 30
0.0
 10
139.739700
 20
114.935460
 30
0.0
 10
140.275930
 20
115.313630
 30
0.0
  0
LWPOLYLINE
  5
270
100
AcDbEntity
  8
Calque_1
 62
7
100
AcDbPolyline
 90
25
 70
1
 10
142.345230
 20
117.035160
 30
0.0
 10
143.587010
 20
117.035160
 30
0.0
 10
143.739410
 20
116.922270
 30
0.0
 10
143.587010
 20
116.803740
 30
0.0
 10
142.345230
 20
116.803740
 30
0.0
 10
142.345230
 20
115.296670
 30
0.0
 10
142.514570
 20
114.952360
 30
0.0
 10
142.977410
 20
114.822540
 30
0.0
 10
143.479770
 20
114.884640
 30
0.0
 10
143.914390
 20
115.048330
 30
0.0
 10
144.004690
 20
115.082230
 30
0.0
 10
144.078090
 20
115.048330
 30
0.0
 10
144.111990
 20
114.969330
 30
0.0
 10
143.728170
 20
114.715330
 30
0.0
 10
142.988750
 20
114.591160
 30
0.0
 10
142.350930
 20
114.777420
 30
0.0
 10
142.113860
 20
115.285420
 30
0.0
 10
142.113860
 20
116.803780
 30
0.0
 10
141.696170
 20
116.803780
 30
0.0
 10
141.538130
 20
116.922310
 30
0.0
 10
141.696170
 20
117.035200
 30
0.0
 10
142.113860
 20
117.035200
 30
0.0
 10
142.113860
 20
117.706890
 30
0.0
 10
142.232390
 20
117.859290
 30
0.0
 10
142.345280
 20
117.706890
 30
0.0
  0
LWPOLYLINE
  5
271
100
AcDbEntity
  8
Calque_1
 62
7
100
AcDbPolyline
 90
17
 70
1
 10
146.373160
 20
117.114180
 30
0.0
 10
146.872695
 20
117.021048
 30
0.0
 10
147.287560
 20
116.741650
 30
0.0
 10
147.566965
 20
116.332428
 30
0.0
 10
147.660100
 20
115.838540
 30
0.0
 10
147.565555
 20
115.357350
 30
0.0
 10
147.281920
 20
114.952360
 30
0.0
 10
146.865640
 20
114.681430
 30
0.0
 10
146.373160
 20
114.591120
 30
0.0
 10
145.876450
 20
114.682840
 30
0.0
 10
145.458760
 20
114.958000
 30
0.0
 10
145.179363
 20
115.365813
 30
0.0
 10
145.086230
 20
115.855470
 30
0.0
 10
145.179363
 20
116.336660
 30
0.0
 10
145.458760
 20
116.741650
 30
0.0
 10
145.876450
 20
117.021048
 30
0.0
 10
146.373160
 20
117.114180
 30
0.0
  0
LWPOLYLINE
  5
272
100
AcDbEntity
  8
Calque_1
 62
7
100
AcDbPolyline
 90
17
 70
1
 10
146.373160
 20
116.882760
 30
0.0
 10
145.965353
 20
116.807970
 30
0.0
 10
145.622450
 20
116.583600
 30
0.0
 10
145.393850
 20
116.251993
 30
0.0
 10
145.317650
 20
115.855470
 30
0.0
 10
145.393850
 20
115.457535
 30
0.0
 10
145.622450
 20
115.121690
 30
0.0
 10
145.965353
 20
114.897328
 30
0.0
 10
146.373160
 20
114.822540
 30
0.0
 10
146.776738
 20
114.897328
 30
0.0
 10
147.118230
 20
115.121690
 30
0.0
 10
147.351060
 20
115.450483
 30
0.0
 10
147.428670
 20
115.838540
 30
0.0
 10
147.352470
 20
116.247760
 30
0.0
 10
147.123870
 20
116.583600
 30
0.0
 10
146.783793
 20
116.807970
 30
0.0
 10
146.373160
 20
116.882760
 30
0.0
  0
LWPOLYLINE
  5
273
100
AcDbEntity
  8
Calque_1
 62
7
100
AcDbPolyline
 90
25
 70
1
 10
150.999400
 20
116.623120
 30
0.0
 10
150.824420
 20
116.741650
 30
0.0
 10
150.536560
 20
116.860180
 30
0.0
 10
150.135800
 20
116.724720
 30
0.0
 10
149.464110
 20
116.160270
 30
0.0
 10
149.464110
 20
114.912850
 30
0.0
 10
150.474470
 20
114.912850
 30
0.0
 10
150.626870
 20
114.794320
 30
0.0
 10
150.474470
 20
114.681430
 30
0.0
 10
148.690820
 20
114.681430
 30
0.0
 10
148.538420
 20
114.799960
 30
0.0
 10
148.690820
 20
114.912850
 30
0.0
 10
149.232690
 20
114.912850
 30
0.0
 10
149.232690
 20
116.803740
 30
0.0
 10
148.809360
 20
116.803740
 30
0.0
 10
148.656960
 20
116.922270
 30
0.0
 10
148.809360
 20
117.035160
 30
0.0
 10
149.464110
 20
117.035160
 30
0.0
 10
149.464110
 20
116.459430
 30
0.0
 10
150.096290
 20
116.950490
 30
0.0
 10
150.553490
 20
117.091600
 30
0.0
 10
150.948600
 20
116.956140
 30
0.0
 10
151.117940
 20
116.741650
 30
0.0
 10
151.084040
 20
116.656950
 30
0.0
 10
150.999340
 20
116.623050
 30
0.0
  0
LWPOLYLINE
  5
274
100
AcDbEntity
  8
Calque_1
 62
7
100
AcDbPolyline
 90
41
 70
1
 10
154.000040
 20
115.341830
 30
0.0
 10
153.808130
 20
115.663560
 30
0.0
 10
153.345290
 20
115.815960
 30
0.0
 10
152.803420
 20
115.900660
 30
0.0
 10
152.340580
 20
116.086920
 30
0.0
 10
152.148660
 20
116.476390
 30
0.0
 10
152.419600
 20
116.933590
 30
0.0
 10
153.113860
 20
117.114210
 30
0.0
 10
153.547073
 20
117.049300
 30
0.0
 10
153.887150
 20
116.854570
 30
0.0
 10
153.887150
 20
116.877170
 30
0.0
 10
154.005690
 20
117.035210
 30
0.0
 10
154.118580
 20
116.877170
 30
0.0
 10
154.118580
 20
116.487700
 30
0.0
 10
154.005690
 20
116.335300
 30
0.0
 10
153.887150
 20
116.465120
 30
0.0
 10
153.661380
 20
116.769920
 30
0.0
 10
153.136440
 20
116.882810
 30
0.0
 10
152.611510
 20
116.758630
 30
0.0
 10
152.402660
 20
116.459480
 30
0.0
 10
152.594580
 20
116.199830
 30
0.0
 10
153.057420
 20
116.070010
 30
0.0
 10
153.599290
 20
115.979710
 30
0.0
 10
154.062130
 20
115.765220
 30
0.0
 10
154.254040
 20
115.336240
 30
0.0
 10
154.175018
 20
115.041320
 30
0.0
 10
153.937950
 20
114.800020
 30
0.0
 10
153.147730
 20
114.591180
 30
0.0
 10
152.655250
 20
114.667380
 30
0.0
 10
152.261550
 20
114.895980
 30
0.0
 10
152.261550
 20
114.833880
 30
0.0
 10
152.148660
 20
114.681480
 30
0.0
 10
152.030130
 20
114.833880
 30
0.0
 10
152.030130
 20
115.302370
 30
0.0
 10
152.148660
 20
115.454770
 30
0.0
 10
152.261550
 20
115.330590
 30
0.0
 10
152.261550
 20
115.291090
 30
0.0
 10
152.515550
 20
114.958060
 30
0.0
 10
153.130800
 20
114.822600
 30
0.0
 10
153.751690
 20
114.969350
 30
0.0
 10
154.000040
 20
115.341890
 30
0.0
  0
LWPOLYLINE
  5
275
100
AcDbEntity
  8
Calque_1
 62
7
100
AcDbPolyline
 90
36
 70
1
 10
26.590045
 20
115.178140
 30
0.0
 10
26.494085
 20
115.031380
 30
0.0
 10
26.240085
 20
114.839470
 30
0.0
 10
25.833685
 20
114.664490
 30
0.0
 10
25.314396
 20
114.591090
 30
0.0
 10
24.809219
 20
114.678578
 30
0.0
 10
24.399996
 20
114.941040
 30
0.0
 10
24.133296
 20
115.338975
 30
0.0
 10
24.044396
 20
115.832860
 30
0.0
 10
24.136118
 20
116.342273
 30
0.0
 10
24.411285
 20
116.752910
 30
0.0
 10
24.827563
 20
117.023840
 30
0.0
 10
25.342618
 20
117.114150
 30
0.0
 10
25.825219
 20
117.036540
 30
0.0
 10
26.223152
 20
116.803710
 30
0.0
 10
26.223152
 20
116.877110
 30
0.0
 10
26.341685
 20
117.035150
 30
0.0
 10
26.454574
 20
116.877110
 30
0.0
 10
26.454574
 20
116.363460
 30
0.0
 10
26.341685
 20
116.211060
 30
0.0
 10
26.223152
 20
116.346530
 30
0.0
 10
25.940929
 20
116.724710
 30
0.0
 10
25.325685
 20
116.882750
 30
0.0
 10
24.900941
 20
116.809373
 30
0.0
 10
24.563685
 20
116.589240
 30
0.0
 10
24.347785
 20
116.257628
 30
0.0
 10
24.275818
 20
115.838530
 30
0.0
 10
24.349196
 20
115.432130
 30
0.0
 10
24.569329
 20
115.104750
 30
0.0
 10
24.905174
 20
114.893085
 30
0.0
 10
25.325685
 20
114.822530
 30
0.0
 10
25.897185
 20
114.924130
 30
0.0
 10
26.381196
 20
115.228930
 30
0.0
 10
26.482796
 20
115.285330
 30
0.0
 10
26.556176
 20
115.251430
 30
0.0
 10
26.590046
 20
115.178030
 30
0.0
  0
LWPOLYLINE
  5
276
100
AcDbEntity
  8
Calque_1
 62
7
100
AcDbPolyline
 90
17
 70
1
 10
28.648062
 20
117.114180
 30
0.0
 10
29.147596
 20
117.021048
 30
0.0
 10
29.562462
 20
116.741650
 30
0.0
 10
29.841862
 20
116.332428
 30
0.0
 10
29.934995
 20
115.838540
 30
0.0
 10
29.840451
 20
115.357350
 30
0.0
 10
29.556818
 20
114.952360
 30
0.0
 10
29.140540
 20
114.681430
 30
0.0
 10
28.648062
 20
114.591120
 30
0.0
 10
28.151351
 20
114.682840
 30
0.0
 10
27.733662
 20
114.958000
 30
0.0
 10
27.454262
 20
115.365813
 30
0.0
 10
27.361129
 20
115.855470
 30
0.0
 10
27.454262
 20
116.336660
 30
0.0
 10
27.733662
 20
116.741650
 30
0.0
 10
28.151351
 20
117.021048
 30
0.0
 10
28.648062
 20
117.114180
 30
0.0
  0
LWPOLYLINE
  5
277
100
AcDbEntity
  8
Calque_1
 62
7
100
AcDbPolyline
 90
17
 70
1
 10
28.648062
 20
116.882760
 30
0.0
 10
28.240251
 20
116.807970
 30
0.0
 10
27.897351
 20
116.583600
 30
0.0
 10
27.668751
 20
116.251993
 30
0.0
 10
27.592551
 20
115.855470
 30
0.0
 10
27.668751
 20
115.457535
 30
0.0
 10
27.897351
 20
115.121690
 30
0.0
 10
28.240251
 20
114.897328
 30
0.0
 10
28.648062
 20
114.822540
 30
0.0
 10
29.051640
 20
114.897328
 30
0.0
 10
29.393129
 20
115.121690
 30
0.0
 10
29.625962
 20
115.450483
 30
0.0
 10
29.703573
 20
115.838540
 30
0.0
 10
29.627373
 20
116.247760
 30
0.0
 10
29.398773
 20
116.583600
 30
0.0
 10
29.058695
 20
116.807970
 30
0.0
 10
28.648062
 20
116.882760
 30
0.0
  0
LWPOLYLINE
  5
278
100
AcDbEntity
  8
Calque_1
 62
7
100
AcDbPolyline
 90
37
 70
1
 10
32.139768
 20
116.882760
 30
0.0
 10
31.942213
 20
116.860160
 30
0.0
 10
31.767235
 20
116.798060
 30
0.0
 10
31.631768
 20
116.719060
 30
0.0
 10
31.507591
 20
116.617460
 30
0.0
 10
31.417281
 20
116.515860
 30
0.0
 10
31.338261
 20
116.414260
 30
0.0
 10
31.281821
 20
116.340860
 30
0.0
 10
31.281821
 20
114.912820
 30
0.0
 10
31.535821
 20
114.912820
 30
0.0
 10
31.688221
 20
114.799930
 30
0.0
 10
31.535821
 20
114.681400
 30
0.0
 10
30.796399
 20
114.681400
 30
0.0
 10
30.638354
 20
114.799930
 30
0.0
 10
30.796399
 20
114.912820
 30
0.0
 10
31.050399
 20
114.912820
 30
0.0
 10
31.050399
 20
116.803710
 30
0.0
 10
30.858487
 20
116.803710
 30
0.0
 10
30.706087
 20
116.922240
 30
0.0
 10
30.858487
 20
117.035130
 30
0.0
 10
31.281821
 20
117.035130
 30
0.0
 10
31.281821
 20
116.645660
 30
0.0
 10
31.710799
 20
117.012550
 30
0.0
 10
32.162354
 20
117.114150
 30
0.0
 10
32.794532
 20
116.894020
 30
0.0
 10
33.048532
 20
116.346510
 30
0.0
 10
33.048532
 20
114.912820
 30
0.0
 10
33.240443
 20
114.912820
 30
0.0
 10
33.392843
 20
114.799930
 30
0.0
 10
33.240443
 20
114.681400
 30
0.0
 10
32.625199
 20
114.681400
 30
0.0
 10
32.472799
 20
114.799930
 30
0.0
 10
32.625199
 20
114.912820
 30
0.0
 10
32.817110
 20
114.912820
 30
0.0
 10
32.817110
 20
116.307000
 30
0.0
 10
32.630843
 20
116.713400
 30
0.0
 10
32.139776
 20
116.882730
 30
0.0
  0
LWPOLYLINE
  5
279
100
AcDbEntity
  8
Calque_1
 62
7
100
AcDbPolyline
 90
25
 70
1
 10
34.773519
 20
117.035160
 30
0.0
 10
36.015296
 20
117.035160
 30
0.0
 10
36.167696
 20
116.922270
 30
0.0
 10
36.015296
 20
116.803740
 30
0.0
 10
34.773519
 20
116.803740
 30
0.0
 10
34.773519
 20
115.296670
 30
0.0
 10
34.942852
 20
114.952360
 30
0.0
 10
35.405696
 20
114.822540
 30
0.0
 10
35.908052
 20
114.884640
 30
0.0
 10
36.342674
 20
115.048330
 30
0.0
 10
36.432984
 20
115.082230
 30
0.0
 10
36.506364
 20
115.048330
 30
0.0
 10
36.540234
 20
114.969330
 30
0.0
 10
36.156412
 20
114.715330
 30
0.0
 10
35.416989
 20
114.591160
 30
0.0
 10
34.779167
 20
114.777420
 30
0.0
 10
34.542100
 20
115.285420
 30
0.0
 10
34.542100
 20
116.803780
 30
0.0
 10
34.124412
 20
116.803780
 30
0.0
 10
33.966367
 20
116.922310
 30
0.0
 10
34.124412
 20
117.035200
 30
0.0
 10
34.542100
 20
117.035200
 30
0.0
 10
34.542100
 20
117.706890
 30
0.0
 10
34.660634
 20
117.859290
 30
0.0
 10
34.773523
 20
117.706890
 30
0.0
  0
LWPOLYLINE
  5
27a
100
AcDbEntity
  8
Calque_1
 62
7
100
AcDbPolyline
 90
25
 70
1
 10
40.043225
 20
116.623120
 30
0.0
 10
39.868248
 20
116.741650
 30
0.0
 10
39.580381
 20
116.860180
 30
0.0
 10
39.179625
 20
116.724720
 30
0.0
 10
38.507937
 20
116.160270
 30
0.0
 10
38.507937
 20
114.912850
 30
0.0
 10
39.518292
 20
114.912850
 30
0.0
 10
39.670692
 20
114.794320
 30
0.0
 10
39.518292
 20
114.681430
 30
0.0
 10
37.734648
 20
114.681430
 30
0.0
 10
37.582248
 20
114.799960
 30
0.0
 10
37.734648
 20
114.912850
 30
0.0
 10
38.276514
 20
114.912850
 30
0.0
 10
38.276514
 20
116.803740
 30
0.0
 10
37.853181
 20
116.803740
 30
0.0
 10
37.700781
 20
116.922270
 30
0.0
 10
37.853181
 20
117.035160
 30
0.0
 10
38.507937
 20
117.035160
 30
0.0
 10
38.507937
 20
116.459430
 30
0.0
 10
39.140114
 20
116.950490
 30
0.0
 10
39.597314
 20
117.091600
 30
0.0
 10
39.992425
 20
116.956140
 30
0.0
 10
40.161759
 20
116.741650
 30
0.0
 10
40.127889
 20
116.656950
 30
0.0
 10
40.043219
 20
116.623050
 30
0.0
  0
LWPOLYLINE
  5
27b
100
AcDbEntity
  8
Calque_1
 62
7
100
AcDbPolyline
 90
17
 70
1
 10
42.185910
 20
117.114180
 30
0.0
 10
42.685444
 20
117.021048
 30
0.0
 10
43.100310
 20
116.741650
 30
0.0
 10
43.379710
 20
116.332428
 30
0.0
 10
43.472843
 20
115.838540
 30
0.0
 10
43.378299
 20
115.357350
 30
0.0
 10
43.094666
 20
114.952360
 30
0.0
 10
42.678388
 20
114.681430
 30
0.0
 10
42.185910
 20
114.591120
 30
0.0
 10
41.689199
 20
114.682840
 30
0.0
 10
41.271510
 20
114.958000
 30
0.0
 10
40.992110
 20
115.365813
 30
0.0
 10
40.898977
 20
115.855470
 30
0.0
 10
40.992110
 20
116.336660
 30
0.0
 10
41.271510
 20
116.741650
 30
0.0
 10
41.689199
 20
117.021048
 30
0.0
 10
42.185910
 20
117.114180
 30
0.0
  0
LWPOLYLINE
  5
27c
100
AcDbEntity
  8
Calque_1
 62
7
100
AcDbPolyline
 90
17
 70
1
 10
42.185910
 20
116.882760
 30
0.0
 10
41.778099
 20
116.807970
 30
0.0
 10
41.435199
 20
116.583600
 30
0.0
 10
41.206599
 20
116.251993
 30
0.0
 10
41.130399
 20
115.855470
 30
0.0
 10
41.206599
 20
115.457535
 30
0.0
 10
41.435199
 20
115.121690
 30
0.0
 10
41.778099
 20
114.897328
 30
0.0
 10
42.185910
 20
114.822540
 30
0.0
 10
42.589488
 20
114.897328
 30
0.0
 10
42.930977
 20
115.121690
 30
0.0
 10
43.163810
 20
115.450483
 30
0.0
 10
43.241421
 20
115.838540
 30
0.0
 10
43.165221
 20
116.247760
 30
0.0
 10
42.936621
 20
116.583600
 30
0.0
 10
42.596543
 20
116.807970
 30
0.0
 10
42.185910
 20
116.882760
 30
0.0
  0
LWPOLYLINE
  5
27d
100
AcDbEntity
  8
Calque_1
 62
7
100
AcDbPolyline
 90
13
 70
1
 10
45.683259
 20
118.090670
 30
0.0
 10
45.683259
 20
114.912850
 30
0.0
 10
46.586370
 20
114.912850
 30
0.0
 10
46.744415
 20
114.799960
 30
0.0
 10
46.586370
 20
114.681430
 30
0.0
 10
44.548726
 20
114.681430
 30
0.0
 10
44.396326
 20
114.799960
 30
0.0
 10
44.548726
 20
114.912850
 30
0.0
 10
45.451837
 20
114.912850
 30
0.0
 10
45.451837
 20
117.859250
 30
0.0
 10
44.791437
 20
117.859250
 30
0.0
 10
44.639037
 20
117.977780
 30
0.0
 10
44.791437
 20
118.090670
 30
0.0
  0
LWPOLYLINE
  5
27e
100
AcDbEntity
  8
Calque_1
 62
7
100
AcDbPolyline
 90
13
 70
1
 10
49.067722
 20
118.090670
 30
0.0
 10
49.067722
 20
114.912850
 30
0.0
 10
49.970833
 20
114.912850
 30
0.0
 10
50.128877
 20
114.799960
 30
0.0
 10
49.970833
 20
114.681430
 30
0.0
 10
47.933188
 20
114.681430
 30
0.0
 10
47.780788
 20
114.799960
 30
0.0
 10
47.933188
 20
114.912850
 30
0.0
 10
48.836300
 20
114.912850
 30
0.0
 10
48.836300
 20
117.859250
 30
0.0
 10
48.175900
 20
117.859250
 30
0.0
 10
48.023500
 20
117.977780
 30
0.0
 10
48.175900
 20
118.090670
 30
0.0
  0
LWPOLYLINE
  5
27f
100
AcDbEntity
  8
Calque_1
 62
7
100
AcDbPolyline
 90
24
 70
1
 10
53.581073
 20
115.804670
 30
0.0
 10
51.232984
 20
115.804670
 30
0.0
 10
51.357162
 20
115.402505
 30
0.0
 10
51.605517
 20
115.087830
 30
0.0
 10
52.373162
 20
114.822540
 30
0.0
 10
52.915029
 20
114.907240
 30
0.0
 10
53.360940
 20
115.127380
 30
0.0
 10
53.451250
 20
115.166880
 30
0.0
 10
53.524630
 20
115.132980
 30
0.0
 10
53.558500
 20
115.053980
 30
0.0
 10
53.152100
 20
114.749180
 30
0.0
 10
52.367522
 20
114.591140
 30
0.0
 10
51.839767
 20
114.687095
 30
0.0
 10
51.396678
 20
114.974960
 30
0.0
 10
51.100345
 20
115.399703
 30
0.0
 10
51.001567
 20
115.906290
 30
0.0
 10
51.094700
 20
116.377605
 30
0.0
 10
51.374100
 20
116.764250
 30
0.0
 10
51.788967
 20
117.026713
 30
0.0
 10
52.288500
 20
117.114200
 30
0.0
 10
52.806378
 20
117.023890
 30
0.0
 10
53.219834
 20
116.752960
 30
0.0
 10
53.490767
 20
116.338093
 30
0.0
 10
53.581078
 20
115.804690
 30
0.0
  0
LWPOLYLINE
  5
280
100
AcDbEntity
  8
Calque_1
 62
7
100
AcDbPolyline
 90
6
 70
1
 10
51.232984
 20
116.036090
 30
0.0
 10
53.344006
 20
116.036090
 30
0.0
 10
52.988406
 20
116.651340
 30
0.0
 10
52.288495
 20
116.882760
 30
0.0
 10
51.594229
 20
116.651340
 30
0.0
 10
51.232984
 20
116.036090
 30
0.0
  0
LWPOLYLINE
  5
281
100
AcDbEntity
  8
Calque_1
 62
7
100
AcDbPolyline
 90
25
 70
1
 10
56.965535
 20
116.623120
 30
0.0
 10
56.790558
 20
116.741650
 30
0.0
 10
56.502691
 20
116.860180
 30
0.0
 10
56.101935
 20
116.724720
 30
0.0
 10
55.430246
 20
116.160270
 30
0.0
 10
55.430246
 20
114.912850
 30
0.0
 10
56.440602
 20
114.912850
 30
0.0
 10
56.593002
 20
114.794320
 30
0.0
 10
56.440602
 20
114.681430
 30
0.0
 10
54.656958
 20
114.681430
 30
0.0
 10
54.504558
 20
114.799960
 30
0.0
 10
54.656958
 20
114.912850
 30
0.0
 10
55.198824
 20
114.912850
 30
0.0
 10
55.198824
 20
116.803740
 30
0.0
 10
54.775491
 20
116.803740
 30
0.0
 10
54.623091
 20
116.922270
 30
0.0
 10
54.775491
 20
117.035160
 30
0.0
 10
55.430246
 20
117.035160
 30
0.0
 10
55.430246
 20
116.459430
 30
0.0
 10
56.062424
 20
116.950490
 30
0.0
 10
56.519624
 20
117.091600
 30
0.0
 10
56.914735
 20
116.956140
 30
0.0
 10
57.084069
 20
116.741650
 30
0.0
 10
57.050199
 20
116.656950
 30
0.0
 10
56.965529
 20
116.623050
 30
0.0
  0
LWPOLYLINE
  5
282
100
AcDbEntity
  8
Calque_1
 62
7
100
AcDbPolyline
 90
41
 70
1
 10
59.966175
 20
115.341830
 30
0.0
 10
59.774264
 20
115.663560
 30
0.0
 10
59.311420
 20
115.815960
 30
0.0
 10
58.769553
 20
115.900660
 30
0.0
 10
58.306709
 20
116.086920
 30
0.0
 10
58.114798
 20
116.476390
 30
0.0
 10
58.385731
 20
116.933590
 30
0.0
 10
59.079998
 20
117.114210
 30
0.0
 10
59.513209
 20
117.049300
 30
0.0
 10
59.853287
 20
116.854570
 30
0.0
 10
59.853287
 20
116.877170
 30
0.0
 10
59.971820
 20
117.035210
 30
0.0
 10
60.084709
 20
116.877170
 30
0.0
 10
60.084709
 20
116.487700
 30
0.0
 10
59.971820
 20
116.335300
 30
0.0
 10
59.853287
 20
116.465120
 30
0.0
 10
59.627509
 20
116.769920
 30
0.0
 10
59.102575
 20
116.882810
 30
0.0
 10
58.577642
 20
116.758630
 30
0.0
 10
58.368798
 20
116.459480
 30
0.0
 10
58.560709
 20
116.199830
 30
0.0
 10
59.023553
 20
116.070010
 30
0.0
 10
59.565420
 20
115.979710
 30
0.0
 10
60.028264
 20
115.765220
 30
0.0
 10
60.220175
 20
115.336240
 30
0.0
 10
60.141153
 20
115.041320
 30
0.0
 10
59.904087
 20
114.800020
 30
0.0
 10
59.113864
 20
114.591180
 30
0.0
 10
58.621387
 20
114.667380
 30
0.0
 10
58.227687
 20
114.895980
 30
0.0
 10
58.227687
 20
114.833880
 30
0.0
 10
58.114798
 20
114.681480
 30
0.0
 10
57.996264
 20
114.833880
 30
0.0
 10
57.996264
 20
115.302370
 30
0.0
 10
58.114798
 20
115.454770
 30
0.0
 10
58.227687
 20
115.330590
 30
0.0
 10
58.227687
 20
115.291090
 30
0.0
 10
58.481687
 20
114.958060
 30
0.0
 10
59.096931
 20
114.822600
 30
0.0
 10
59.717820
 20
114.969350
 30
0.0
 10
59.966175
 20
115.341890
 30
0.0
  0
LWPOLYLINE
  5
283
100
AcDbEntity
  8
Calque_1
 62
7
100
AcDbPolyline
 90
4
 70
1
 10
0.125619
 20
9.874390
 30
0.0
 10
9.874381
 20
9.874390
 30
0.0
 10
9.874381
 20
0.125630
 30
0.0
 10
0.125619
 20
0.125630
 30
0.0
  0
LWPOLYLINE
  5
284
100
AcDbEntity
  8
Calque_1
 62
7
100
AcDbPolyline
 90
3
 70
0
 10
157.797460
 20
111.397540
 30
0.0
 10
159.678210
 20
115.159050
 30
0.0
 10
161.558960
 20
111.397540
 30
0.0
  0
LWPOLYLINE
  5
285
100
AcDbEntity
  8
Calque_1
 62
7
100
AcDbPolyline
 90
3
 70
0
 10
165.521790
 20
115.873720
 30
0.0
 10
169.283300
 20
119.635220
 30
0.0
 10
169.283300
 20
115.873720
 30
0.0
  0
LWPOLYLINE
  5
286
100
AcDbEntity
  8
Calque_1
 62
7
100
AcDbPolyline
 90
3
 70
0
 10
174.507160
 20
115.878130
 30
0.0
 10
174.507160
 20
119.639630
 30
0.0
 10
178.268660
 20
115.878130
 30
0.0
  0
LWPOLYLINE
  5
287
100
AcDbEntity
  8
Calque_1
 62
7
100
AcDbPolyline
 90
5
 70
0
 10
182.301820
 20
111.525290
 30
0.0
 10
182.301820
 20
115.286800
 30
0.0
 10
184.182570
 20
115.286800
 30
0.0
 10
184.182570
 20
111.525290
 30
0.0
 10
186.063320
 20
111.525290
 30
0.0
  0
LWPOLYLINE
  5
288
100
AcDbEntity
  8
Calque_1
 62
7
100
AcDbPolyline
 90
5
 70
0
 10
186.772070
 20
103.779900
 30
0.0
 10
186.772070
 20
107.541400
 30
0.0
 10
187.403780
 20
107.541400
 30
0.0
 10
187.403780
 20
103.779900
 30
0.0
 10
190.533570
 20
103.779900
 30
0.0
  0
LWPOLYLINE
  5
289
100
AcDbEntity
  8
Calque_1
 62
7
100
AcDbPolyline
 90
25
 70
0
 10
153.322590
 20
105.661810
 30
0.0
 10
153.374190
 20
105.955670
 30
0.0
 10
153.538520
 20
106.602180
 30
0.0
 10
153.667460
 20
106.947480
 30
0.0
 10
153.829990
 20
107.248690
 30
0.0
 10
154.027900
 20
107.461740
 30
0.0
 10
154.140690
 20
107.521440
 30
0.0
 10
154.262990
 20
107.542540
 30
0.0
 10
154.388100
 20
107.500240
 30
0.0
 10
154.509500
 20
107.380860
 30
0.0
 10
154.743540
 20
106.954750
 30
0.0
 10
154.969700
 20
106.352320
 30
0.0
 10
155.192600
 20
105.661730
 30
0.0
 10
155.416850
 20
104.971140
 30
0.0
 10
155.647050
 20
104.368720
 30
0.0
 10
155.887810
 20
103.942610
 30
0.0
 10
156.013600
 20
103.823220
 30
0.0
 10
156.143750
 20
103.781020
 30
0.0
 10
156.270790
 20
103.802120
 30
0.0
 10
156.387080
 20
103.861820
 30
0.0
 10
156.588860
 20
104.074880
 30
0.0
 10
156.751900
 20
104.376090
 30
0.0
 10
156.878990
 20
104.721390
 30
0.0
 10
157.036580
 20
105.367890
 30
0.0
 10
157.084080
 20
105.661760
 30
0.0
  0
LWPOLYLINE
  5
28a
100
AcDbEntity
  8
Calque_1
 62
7
100
AcDbPolyline
 90
3
 70
0
 10
157.797460
 20
75.397540
 30
0.0
 10
159.678210
 20
79.159050
 30
0.0
 10
161.558960
 20
75.397540
 30
0.0
  0
LWPOLYLINE
  5
28b
100
AcDbEntity
  8
Calque_1
 62
7
100
AcDbPolyline
 90
3
 70
0
 10
165.521790
 20
79.873720
 30
0.0
 10
169.283300
 20
83.635220
 30
0.0
 10
169.283300
 20
79.873720
 30
0.0
  0
LWPOLYLINE
  5
28c
100
AcDbEntity
  8
Calque_1
 62
7
100
AcDbPolyline
 90
3
 70
0
 10
174.507160
 20
79.878130
 30
0.0
 10
174.507160
 20
83.639630
 30
0.0
 10
178.268660
 20
79.878130
 30
0.0
  0
LWPOLYLINE
  5
28d
100
AcDbEntity
  8
Calque_1
 62
7
100
AcDbPolyline
 90
5
 70
0
 10
182.301820
 20
75.525290
 30
0.0
 10
182.301820
 20
79.286800
 30
0.0
 10
184.182570
 20
79.286800
 30
0.0
 10
184.182570
 20
75.525290
 30
0.0
 10
186.063320
 20
75.525290
 30
0.0
  0
LWPOLYLINE
  5
28e
100
AcDbEntity
  8
Calque_1
 62
7
100
AcDbPolyline
 90
5
 70
0
 10
186.772080
 20
67.779900
 30
0.0
 10
186.772080
 20
71.541400
 30
0.0
 10
187.403780
 20
71.541400
 30
0.0
 10
187.403780
 20
67.779900
 30
0.0
 10
190.533570
 20
67.779900
 30
0.0
  0
LWPOLYLINE
  5
28f
100
AcDbEntity
  8
Calque_1
 62
7
100
AcDbPolyline
 90
13
 70
0
 10
153.322590
 20
69.661810
 30
0.0
 10
153.538493
 20
70.602185
 30
0.0
 10
153.829962
 20
71.248693
 30
0.0
 10
154.262970
 20
71.542560
 30
0.0
 10
154.509479
 20
71.380933
 30
0.0
 10
154.743511
 20
70.954824
 30
0.0
 10
155.192575
 20
69.661805
 30
0.0
 10
155.647024
 20
68.368786
 30
0.0
 10
155.887787
 20
67.942677
 30
0.0
 10
156.143720
 20
67.781050
 30
0.0
 10
156.588834
 20
68.074919
 30
0.0
 10
156.878955
 20
68.721430
 30
0.0
 10
157.084090
 20
69.661810
 30
0.0
  0
LWPOLYLINE
  5
290
100
AcDbEntity
  8
Calque_1
 62
7
100
AcDbPolyline
 90
3
 70
0
 10
157.797460
 20
39.397550
 30
0.0
 10
159.678210
 20
43.159050
 30
0.0
 10
161.558960
 20
39.397550
 30
0.0
  0
LWPOLYLINE
  5
291
100
AcDbEntity
  8
Calque_1
 62
7
100
AcDbPolyline
 90
3
 70
0
 10
165.521790
 20
43.873730
 30
0.0
 10
169.283300
 20
47.635230
 30
0.0
 10
169.283300
 20
43.873730
 30
0.0
  0
LWPOLYLINE
  5
292
100
AcDbEntity
  8
Calque_1
 62
7
100
AcDbPolyline
 90
3
 70
0
 10
174.507160
 20
43.878140
 30
0.0
 10
174.507160
 20
47.639640
 30
0.0
 10
178.268660
 20
43.878140
 30
0.0
  0
LWPOLYLINE
  5
293
100
AcDbEntity
  8
Calque_1
 62
7
100
AcDbPolyline
 90
5
 70
0
 10
182.301820
 20
39.525300
 30
0.0
 10
182.301820
 20
43.286810
 30
0.0
 10
184.182570
 20
43.286810
 30
0.0
 10
184.182570
 20
39.525300
 30
0.0
 10
186.063320
 20
39.525300
 30
0.0
  0
LWPOLYLINE
  5
294
100
AcDbEntity
  8
Calque_1
 62
7
100
AcDbPolyline
 90
5
 70
0
 10
186.772070
 20
31.779900
 30
0.0
 10
186.772070
 20
35.541410
 30
0.0
 10
187.403780
 20
35.541410
 30
0.0
 10
187.403780
 20
31.779900
 30
0.0
 10
190.533570
 20
31.779900
 30
0.0
  0
LWPOLYLINE
  5
295
100
AcDbEntity
  8
Calque_1
 62
7
100
AcDbPolyline
 90
13
 70
0
 10
153.322590
 20
33.661810
 30
0.0
 10
153.538491
 20
34.602185
 30
0.0
 10
153.829958
 20
35.248693
 30
0.0
 10
154.262960
 20
35.542560
 30
0.0
 10
154.509473
 20
35.380933
 30
0.0
 10
154.743507
 20
34.954826
 30
0.0
 10
155.192574
 20
33.661810
 30
0.0
 10
155.647024
 20
32.368794
 30
0.0
 10
155.887787
 20
31.942687
 30
0.0
 10
156.143720
 20
31.781060
 30
0.0
 10
156.588834
 20
32.074927
 30
0.0
 10
156.878955
 20
32.721435
 30
0.0
 10
157.084090
 20
33.661810
 30
0.0
  0
ENDSEC
  0
SECTION
  2
OBJECTS
  0
DICTIONARY
  5
C
330
0
100
AcDbDictionary
  3
ACAD_GROUP
350
D
  3
ACAD_MLINESTYLE
350
17
  0
DICTIONARY
  5
D
330
C
100
AcDbDictionary
  0
DICTIONARY
  5
1A
330
C
100
AcDbDictionary
  0
DICTIONARY
  5
17
330
C
100
AcDbDictionary
  3
STANDARD
350
18
  0
DICTIONARY
  5
19
330
C
100
AcDbDictionary
  0
ENDSEC
  0
EOF
